» » »

The National - The Runaway Tabs

Artists:  A B C D E F G H I J K L M N O P Q R S T U V W X Y Z # 

The Runaway Tabs

(ver. 1) Click to play this song!
The National
 Rating:
4/5 (4 votes)

 The Runaway lessons Tabs too difficult? Try these video lessons and learn fast
 
                song      : runaway
artist    : the national


standard tuning

pretty straightforward, this should be the whole song for rhythm guitar
repeat each section as necessary


INTRO/VERSE

e-|------------------------------------------------|
b-|------------------------------------------------|
g-|------------------------------------------------|
d-|----6-----6-----6-----6-----7-----7-----7-----7-|
a-|--7-----7-----7-----7-----4-----4-----4-----4---|
E-|0-----0-----0-----0-----0-----0-----0-----0-----|


e-|------------------------------------------------|
b-|------------------------------------------------|
g-|------------------------------------------------|
d-|----6-----6-----6-----6-----6-----6-----6-----6-|
a-|--2-----2-----2-----2-----2-----2-----2-----2---|
E-|0-----0-----0-----0-----4-----4-----4-----4-----|


CHORUS

e-|------------------------------------------------|
b-|------------------------------------------------|
g-|------------------------------------------------|
d-|----11----11----9-----9-----7-----7-----7-----7-|
a-|--7-----7-----7-----7-----7-----7-----7-----7---|
E-|9-----9-----9-----9-----9-----9-----9-----9-----|


e-|------------------------------------------------|
b-|------------------------------------------------|
g-|----9-----9-----9-----9-------------------------|
d-|--9-----9-----9-----9-------9-----9-----9-----9-|
a-|11----11----11----9-------9-----9-----9-----9---|
E-|------------------------11----11----11----11----|
            
Submit corrections


        The Runaway lessons Hard to play? Try these video lessons and learn fast The Runaway lessons
        
↑ Back to top | Tablatures and chords for acoustic guitar and electric guitar, ukulele, drums are parodies/interpretations of the original songs. You may use it for private study, scholarship, research or language learning purposes only