Home » T » The National »

The National - About Today Tabs

Artists:  A B C D E F G H I J K L M N O P Q R S T U V W X Y Z # 

About Today Tabs

(ver. 3) Click to play this song!
The National
Tuning: Standard

Intro:
e|--3-----------0-----------0------------------------0-----------------------|
B|---------1-----------1-----------1-----1------1-----------1----1------1----|
G|-------2---2-------2---2-------2---2--------2---2-------2---2-------2---2--|
D|--3--3--------3--3---------------------------------------------------------|
A|--------------------------0--0---------0--0--------0--0--------0--0--------|
E|---------------------------------------------------------------------------|

e|-------------------------|
B|--0-----0----0------0----|
G|------0---0-------0---0--|
D|-------------------------|
A|-------------------------|
E|--3--3-------3--3--------|

Verse:
e|--3-----------0-----------0------------------------0-----------------------|
B|---------1-----------1-----------1-----1------1-----------1----1------1----|
G|-------2---2-------2---2-------2---2--------2---2-------2---2-------2---2--|
D|--3--3--------3--3---------------------------------------------------------|
A|--------------------------0--0---------0--0--------0--0--------0--0--------|
E|---------------------------------------------------------------------------|

                       Today
e|-------------------------|
B|--0-----0----0------0----|
G|------0---0-------0---0--|
D|-------------------------|
A|-------------------------|
E|--3--3-------3--3--------|

e|--3-----------0-----------0------------------------0-----------------------|
B|---------1-----------1-----------1-----1------1-----------1----1------1----|
G|-------2---2-------2---2-------2---2--------2---2-------2---2-------2---2--|
D|--3--3--------3--3---------------------------------------------------------|
A|--------------------------0--0---------0--0--------0--0--------0--0--------|
E|---------------------------------------------------------------------------|

          You were far away  
e|-------------------------|
B|--0-----0----0------0----|
G|------0---0-------0---0--|
D|-------------------------|
A|-------------------------|
E|--3--3-------3--3--------|

e|--3-----------0-----------0------------------------0-----------------------|
B|---------1-----------1-----------1-----1------1-----------1----1------1----|
G|-------2---2-------2---2-------2---2--------2---2-------2---2-------2---2--|
D|--3--3--------3--3---------------------------------------------------------|
A|--------------------------0--0---------0--0--------0--0--------0--0--------|
E|---------------------------------------------------------------------------|

                       And I
e|-------------------------|
B|--0-----0----0------0----|
G|------0---0-------0---0--|
D|-------------------------|
A|-------------------------|
E|--3--3-------3--3--------|

e|--3-----------0-----------0------------------------0-----------------------|
B|---------1-----------1-----------1-----1------1-----------1----1------1----|
G|-------2---2-------2---2-------2---2--------2---2-------2---2-------2---2--|
D|--3--3--------3--3---------------------------------------------------------|
A|--------------------------0--0---------0--0--------0--0--------0--0--------|
E|---------------------------------------------------------------------------|

        Didn't ask you why               
e|-------------------------|
B|--0-----0----0------0----|
G|------0---0-------0---0--|
D|-------------------------|
A|-------------------------|
E|--3--3-------3--3--------|

Chorus:
e|-----------------------------------------------------|
B|--1------1-----1------1-----1------1-----1------1----|
G|--0----0---0--------0---0--------0---0--------0---0--|
D|-----------------------------------------------------|
A|--3--3---------3--3---------3--3---------3--3--------|
E|-----------------------------------------------------|

                                       What could I say
e|--0--------------------------------------------------|
B|--1------1-----0------0-----1------1-----0------0----|
G|-------0---0--------0---0--------0---0--------0---0--|
D|-----------------------------------------------------|
A|--2--2---------2--2---------2--2---------2--2--------|
E|-----------------------------------------------------|

e|--1-----------3-----------1-----------0-----------|
B|--1------1----1------1----1------1----1------1----|
G|-------2---2-------2---2-------2---2-------2---2--|
D|--3--3--------3--3--------3--3--------3--3--------|
A|--------------------------------------------------|
E|--------------------------------------------------|

                                  I was far away
e|--------------3-----------1-----------0-----------|
B|--0------0----0------0----0------0----0------0----|
G|--0----0---0-------0---0-------0---0-------0---0--|
D|--------------------------------------------------|
A|--3--3--------------------------------------------|
E|--------------3--3--------3--3--------3--3--------|

Verse:
e|--3-----------0-----------0------------------------0-----------------------|
B|---------1-----------1-----------1-----1------1-----------1----1------1----|
G|-------2---2-------2---2-------2---2--------2---2-------2---2-------2---2--|
D|--3--3--------3--3---------------------------------------------------------|
A|--------------------------0--0---------0--0--------0--0--------0--0--------|
E|---------------------------------------------------------------------------|

       You just walked away
e|-------------------------|
B|--0-----0----0------0----|
G|------0---0-------0---0--|
D|-------------------------|
A|-------------------------|
E|--3--3-------3--3--------|

e|--3-----------0-----------0------------------------0-----------------------|
B|---------1-----------1-----------1-----1------1-----------1----1------1----|
G|-------2---2-------2---2-------2---2--------2---2-------2---2-------2---2--|
D|--3--3--------3--3---------------------------------------------------------|
A|--------------------------0--0---------0--0--------0--0--------0--0--------|
E|---------------------------------------------------------------------------|

  And I just watched you
e|-------------------------|
B|--0-----0----0------0----|
G|------0---0-------0---0--|
D|-------------------------|
A|-------------------------|
E|--3--3-------3--3--------|

e|--3-----------0-----------0------------------------0-----------------------|
B|---------1-----------1-----------1-----1------1-----------1----1------1----|
G|-------2---2-------2---2-------2---2--------2---2-------2---2-------2---2--|
D|--3--3--------3--3---------------------------------------------------------|
A|--------------------------0--0---------0--0--------0--0--------0--0--------|
E|---------------------------------------------------------------------------|

          What could I say
e|-------------------------|
B|--0-----0----0------0----|
G|------0---0-------0---0--|
D|-------------------------|
A|-------------------------|
E|--3--3-------3--3--------|

Chorus:
e|-----------------------------------------------------|
B|--1------1-----1------1-----1------1-----1------1----|
G|--0----0---0--------0---0--------0---0--------0---0--|
D|-----------------------------------------------------|
A|--3--3---------3--3---------3--3---------3--3--------|
E|-----------------------------------------------------|

                                       How close am I
e|--0--------------------------------------------------|
B|--1------1-----0------0-----1------1-----0------0----|
G|-------0---0--------0---0--------0---0--------0---0--|
D|-----------------------------------------------------|
A|--2--2---------2--2---------2--2---------2--2--------|
E|-----------------------------------------------------|

e|--1-----------3-----------1-----------0-----------|
B|--1------1----1------1----1------1----1------1----|
G|-------2---2-------2---2-------2---2-------2---2--|
D|--3--3--------3--3--------3--3--------3--3--------|
A|--------------------------------------------------|
E|--------------------------------------------------|

                            To losing you
e|--------------3-----------1-----------0-----------|
B|--0------0----0------0----0------0----0------0----|
G|--0----0---0-------0---0-------0---0-------0---0--|
D|--------------------------------------------------|
A|--3--3--------------------------------------------|
E|--------------3--3--------3--3--------3--3--------|

Verse:
e|--3-----------0-----------0------------------------0-----------------------|
B|---------1-----------1-----------1-----1------1-----------1----1------1----|
G|-------2---2-------2---2-------2---2--------2---2-------2---2-------2---2--|
D|--3--3--------3--3---------------------------------------------------------|
A|--------------------------0--0---------0--0--------0--0--------0--0--------|
E|---------------------------------------------------------------------------|

                    Tonight
e|-------------------------|
B|--0-----0----0------0----|
G|------0---0-------0---0--|
D|-------------------------|
A|-------------------------|
E|--3--3-------3--3--------|

e|--3-----------0-----------0------------------------0-----------------------|
B|---------1-----------1-----------1-----1------1-----------1----1------1----|
G|-------2---2-------2---2-------2---2--------2---2-------2---2-------2---2--|
D|--3--3--------3--3---------------------------------------------------------|
A|--------------------------0--0---------0--0--------0--0--------0--0--------|
E|---------------------------------------------------------------------------|

     You just close your eyes
e|-------------------------|
B|--0-----0----0------0----|
G|------0---0-------0---0--|
D|-------------------------|
A|-------------------------|
E|--3--3-------3--3--------|
                                                               
e|--3-----------0-----------0------------------------0-----------------------|
B|---------1-----------1-----------1-----1------1-----------1----1------1----|
G|-------2---2-------2---2-------2---2--------2---2-------2---2-------2---2--|
D|--3--3--------3--3---------------------------------------------------------|
A|--------------------------0--0---------0--0--------0--0--------0--0--------|
E|---------------------------------------------------------------------------|

 And I just watched you 
e|-------------------------|
B|--0-----0----0------0----|
G|------0---0-------0---0--|
D|-------------------------|
A|-------------------------|
E|--3--3-------3--3--------|

e|--3-----------0-----------0------------------------0-----------------------|
B|---------1-----------1-----------1-----1------1-----------1----1------1----|
G|-------2---2-------2---2-------2---2--------2---2-------2---2-------2---2--|
D|--3--3--------3--3---------------------------------------------------------|
A|--------------------------0--0---------0--0--------0--0--------0--0--------|
E|---------------------------------------------------------------------------|

                Slip away
e|-------------------------|
B|--0-----0----0------0----|
G|------0---0-------0---0--|
D|-------------------------|
A|-------------------------|
E|--3--3-------3--3--------|

Chorus:
e|-----------------------------------------------------|
B|--1------1-----1------1-----1------1-----1------1----|
G|--0----0---0--------0---0--------0---0--------0---0--|
D|-----------------------------------------------------|
A|--3--3---------3--3---------3--3---------3--3--------|
E|-----------------------------------------------------|

                                       How close am I
e|--0--------------------------------------------------|
B|--1------1-----0------0-----1------1-----0------0----|
G|-------0---0--------0---0--------0---0--------0---0--|
D|-----------------------------------------------------|
A|--2--2---------2--2---------2--2---------2--2--------|
E|-----------------------------------------------------|

e|--1-----------3-----------1-----------0-----------|
B|--1------1----1------1----1------1----1------1----|
G|-------2---2-------2---2-------2---2-------2---2--|
D|--3--3--------3--3--------3--3--------3--3--------|
A|--------------------------------------------------|
E|--------------------------------------------------|

                            To losing you
e|--------------3-----------1-----------0-----------|
B|--0------0----0------0----0------0----0------0----|
G|--0----0---0-------0---0-------0---0-------0---0--|
D|--------------------------------------------------|
A|--3--3--------------------------------------------|
E|--------------3--3--------3--3--------3--3--------|

e|--3-----------0-----------0------------------------0-----------------------|
B|---------1-----------1-----------1-----1------1-----------1----1------1----|
G|-------2---2-------2---2-------2---2--------2---2-------2---2-------2---2--|
D|--3--3--------3--3---------------------------------------------------------|
A|--------------------------0--0---------0--0--------0--0--------0--0--------|
E|---------------------------------------------------------------------------|

e|--3-----------0-----------0------------------------0-----------------------|
B|---------1-----------1-----------1-----1------1-----------1----1------1----|
G|-------2---2-------2---2-------2---2--------2---2-------2---2-------2---2--|
D|--3--3--------3--3---------------------------------------------------------|
A|--------------------------0--0---------0--0--------0--0--------0--0--------|
E|---------------------------------------------------------------------------|

e|-------------------------|
B|--0-----0----0------0----|
G|------0---0-------0---0--|
D|-------------------------|
A|-------------------------|
E|--3--3-------3--3--------|

Verse:
   Hey,                    are you awake                Yeah I'm right here
e|--3-----------0-----------0------------------------0-----------------------|
B|---------1-----------1-----------1-----1------1-----------1----1------1----|
G|-------2---2-------2---2-------2---2--------2---2-------2---2-------2---2--|
D|--3--3--------3--3---------------------------------------------------------|
A|--------------------------0--0---------0--0--------0--0--------0--0--------|
E|---------------------------------------------------------------------------|
     
          Well can I 
e|-------------------------|
B|--0-----0----0------0----|
G|------0---0-------0---0--|
D|-------------------------|
A|-------------------------|
E|--3--3-------3--3--------|

    Ask you 
e|--3-----------0-----------0------------------------0-----------------------|
B|---------1-----------1-----------1-----1------1-----------1----1------1----|
G|-------2---2-------2---2-------2---2--------2---2-------2---2-------2---2--|
D|--3--3--------3--3---------------------------------------------------------|
A|--------------------------0--0---------0--0--------0--0--------0--0--------|
E|---------------------------------------------------------------------------|
 
                About today
e|-------------------------|
B|--0-----0----0------0----|
G|------0---0-------0---0--|
D|-------------------------|
A|-------------------------|
E|--3--3-------3--3--------|

Chorus:
e|-----------------------------------------------------|
B|--1------1-----1------1-----1------1-----1------1----|
G|--0----0---0--------0---0--------0---0--------0---0--|
D|-----------------------------------------------------|
A|--3--3---------3--3---------3--3---------3--3--------|
E|-----------------------------------------------------|

                                       How close am I
e|--0--------------------------------------------------|
B|--1------1-----0------0-----1------1-----0------0----|
G|-------0---0--------0---0--------0---0--------0---0--|
D|-----------------------------------------------------|
A|--2--2---------2--2---------2--2---------2--2--------|
E|-----------------------------------------------------|

e|--1-----------3-----------1-----------0-----------|
B|--1------1----1------1----1------1----1------1----|
G|-------2---2-------2---2-------2---2-------2---2--|
D|--3--3--------3--3--------3--3--------3--3--------|
A|--------------------------------------------------|
E|--------------------------------------------------|

                            To losing you
e|--------------3-----------1-----------0-----------|
B|--0------0----0------0----0------0----0------0----|
G|--0----0---0-------0---0-------0---0-------0---0--|
D|--------------------------------------------------|
A|--3--3--------------------------------------------|
E|--------------3--3--------3--3--------3--3--------|

e|-----------------------------------------------------|
B|--1------1-----1------1-----1------1-----1------1----|
G|--0----0---0--------0---0--------0---0--------0---0--|
D|-----------------------------------------------------|
A|--3--3---------3--3---------3--3---------3--3--------|
E|-----------------------------------------------------|

                                       How close am I
e|--0--------------------------------------------------|
B|--1------1-----0------0-----1------1-----0------0----|
G|-------0---0--------0---0--------0---0--------0---0--|
D|-----------------------------------------------------|
A|--2--2---------2--2---------2--2---------2--2--------|
E|-----------------------------------------------------|

e|--1-----------3-----------1-----------0-----------|
B|--1------1----1------1----1------1----1------1----|
G|-------2---2-------2---2-------2---2-------2---2--|
D|--3--3--------3--3--------3--3--------3--3--------|
A|--------------------------------------------------|
E|--------------------------------------------------|

                            To losing
e|--------------3-----------1-----------0-----------|
B|--0------0----0------0----0------0----0------0----|
G|--0----0---0-------0---0-------0---0-------0---0--|
D|--------------------------------------------------|
A|--3--3--------------------------------------------|
E|--------------3--3--------3--3--------3--3--------|            
Submit corrections

↑ Back to top | Tablatures and chords for acoustic guitar and electric guitar, ukulele, drums are parodies/interpretations of the original songs. You may use it for private study, scholarship, research or language learning purposes only