» » »

The Movielife - Walking On Glass Tabs

Artists:  A B C D E F G H I J K L M N O P Q R S T U V W X Y Z # 

Walking On Glass Tabs

(ver. 3) Click to play this song!
The Movielife
 Rating:
4/5 (4 votes)

 Walking On Glass lessons Tabs too difficult? Try these video lessons and learn fast
 
                The Movielife-Walking on Glass
Key-Drop D

Intro-Play 2x
e-------------------------------------------------------------------
B------------------------------------------------------------------
G------------------------------------------------------------------
D---1--1--1---5--5--5---8--8--8--------------------------------
A---1--1--1---5--5--5---8--8--8--------------------------------
E---1--1--1---5--5--5---8--8--8--------------------------------

Verse 1a-Play 4x

e-------------------------------------------------------------------
B------------------------------------------------------------------
G------------------------------------------------------------------
D---1--1--1---5--5--5---8--8--8--------------------------------
A---1--1--1---5--5--5---8--8--8--------------------------------
E---1--1--1---5--5--5---8--8--8--------------------------------

Verse 1b-Play 2x

e--------------------------------------------------------------------------
B-------------------------------------------------------------------------
G------------------------------------------------------3--3--3---
D---6--6--6---5--5--5---3--3--3-----6--6--6---5--5--5--3--3--3----
A---6--6--6---5--5--5---3--3--3-----6--6--6---5--5--5--1--1--1----
E---6--6--6---5--5--5---3--3--3-----6--6--6---5--5--5---------------

Verse 1a-Play 4x

e-------------------------------------------------------------------
B------------------------------------------------------------------
G------------------------------------------------------------------
D---1--1--1---5--5--5---8--8--8--------------------------------
A---1--1--1---5--5--5---8--8--8--------------------------------
E---1--1--1---5--5--5---8--8--8--------------------------------






Verse 1b-Play 2x

e--------------------------------------------------------------------------
B-------------------------------------------------------------------------
G------------------------------------------------------3--3--3---
D---6--6--6---5--5--5---3--3--3-----6--6--6---5--5--5--3--3--3----
A---6--6--6---5--5--5---3--3--3-----6--6--6---5--5--5--1--1--1----
E---6--6--6---5--5--5---3--3--3-----6--6--6---5--5--5---------------

Chorus-Play 2x

e---------------------------------------------------------------------------
B---------------------------------------------------------------------------
G-----------------------5--5--5---3--3--3------------------------------
D---1--1--1---6--6--6---5--5--5---3--3--3-------------------------------
A---1--1--1---6--6--6---3--3--3---1--1--1-------------------------------
E---1--1--1---6--6--6-----------------------------------------------------

e---------------------------------------------------------------------------
B---------------------------------------------------------------------------
G---------------------------------------------------------------------------
D---6--6--6---8--8--8----------------------------------------------------
A---6--6--6---8--8--8----------------------------------------------------
E---6--6--6---8--8--8-----------------------------------------------------

Solo

e----------------------------------------------------------------------------------
B----------8----------8---------------8---------------8-----------11-
G---8--8-----10--8-----10--8--10-----10--8--10-----8--8--8--7------------
D-------------------------------------------------------------8--------
A----------------------------------------------------------------------------------
E----------------------------------------------------------------------------------

Rhythm Guitar-Play 2x During Solo
e-------------------------------------------------------------------
B------------------------------------------------------------------
G------------------------------------------------------------------
D---1--1--1---5--5--5---8--8--8--------------------------------
A---1--1--1---5--5--5---8--8--8--------------------------------
E---1--1--1---5--5--5---8--8--8--------------------------------





Verse 1a-Play 4x

e-------------------------------------------------------------------
B------------------------------------------------------------------
G------------------------------------------------------------------
D---1--1--1---5--5--5---8--8--8--------------------------------
A---1--1--1---5--5--5---8--8--8--------------------------------
E---1--1--1---5--5--5---8--8--8--------------------------------

Verse 1b-Play 2x

e--------------------------------------------------------------------------
B-------------------------------------------------------------------------
G------------------------------------------------------3--3--3---
D---6--6--6---5--5--5---3--3--3-----6--6--6---5--5--5--3--3--3----
A---6--6--6---5--5--5---3--3--3-----6--6--6---5--5--5--1--1--1----
E---6--6--6---5--5--5---3--3--3-----6--6--6---5--5--5---------------

Chorus-Play 2x

e------------------------------------------------------------------------------
B----------------------------------------------------------------------------
G-----------------------5--5--5---3--3--3------------------------------
D---1--1--1---6--6--6---5--5--5---3--3--3-------------------------------
A---1--1--1---6--6--6---3--3--3---1--1--1-------------------------------
E---1--1--1---6--6--6-----------------------------------------------------

Verse 2a-Play 3x

e---------------------------------------------------------------------------
B--------------------------------------------------------------------------
G--------------------------------------------------------------------------
D---6--6--6---8--8--8----------------------------------------------------
A---6--6--6---8--8--8----------------------------------------------------
E---6--6--6---8--8--8-----------------------------------------------------

Rhythm Guitar-Play 3x in Verse 2a
e-------------------------------------------------------------------
B------------------------------------------------------------------
G------------------------------------------------------------------
D------------------------------------------------------------------
A--3--5--6--------------------------------------------------------
E-------------------------------------------------------------------



Verse 2b-Play 2x

e-----------------------------------------------------------------------------
B----------------------------------------------------------------------------
G-----------------------5--5--5---3--3--3-----------------------------
D---1--1--1---6--6--6---5--5--5---3--3--3-------------------------------
A---1--1--1---6--6--6---3--3--3---1--1--1-------------------------------
E---1--1--1---6--6--6-----------------------------------------------------

Rhythm Guitar-Play 2x in Verse 2b 

e-------------------------------------------------------------------
B-----8--6-----------------------------------------------------------
G------------8----------------------------------------------------
D------------------------------------------------------------------
A------------------------------------------------------------------
E-------------------------------------------------------------------


Outro-Play 2x

e------------------------------------------------------------------------
B------------------------------------------------------------------------
G-------------------5--5--5---3--3--3------------------------------
D---1--1------------5--5--5---3--3--3-------------------------------
A---1--1------------3--3--3---1--1--1-------------------------------
E---1--1---------------------------------------------------------------

Let Ring
e-------------------------------------------------------------------
B------------------------------------------------------------------
G----------------------------------------------------------------
D---1---------------------------------------------------------------
A---1---------------------------------------------------------------
E---1----------------------------------------------------------------

	
            
Submit corrections


        Walking On Glass lessons Hard to play? Try these video lessons and learn fast Walking On Glass lessons
        
↑ Back to top | Tablatures and chords for acoustic guitar and electric guitar, ukulele, drums are parodies/interpretations of the original songs. You may use it for private study, scholarship, research or language learning purposes only