» » »

The Movielife - This Time Next Year Tabs

Artists:  A B C D E F G H I J K L M N O P Q R S T U V W X Y Z # 

This Time Next Year Tabs

(ver. 2) Click to play this song!
The Movielife
 Rating:
4/5 (4 votes)

 This Time Next Year lessons Tabs too difficult? Try these video lessons and learn fast
 
                Tunning: Half A Step Down 

x=Muted(Don't Press In Bar Chord) 
*=palm mute 
/=slide 
^=bend string 
h=hammer on 
p=pull off 
~=let it ring 
\=pickslide 

Intro: (Guitar 1)
e|----------| 
B|----------| 
G|----------| 
D|--5-------| 
A|----6-----| 
E|----------| 

Guitar 2: 
e|--------------------------------------| 
B|--------------------------------------| 
G|--------------------------------------| 
D|--6-6---6-6----8-8-8----6-6---6-6-----| 
A|--6-6---6-6----8-8-8----6-6---6-6-----| 
E|--4-4---4-4----6-6-6----4-4---4-4-----| 

Verse 1: 
"This is much better than........." 

Guitar 1: same 

Guitar 2: 
e|---------------------------------------| 
B|---------------------------------------| 
G|---------------------------------------| 
D|-6666666666----8-----6666666666----8---| 
A|-6666666666----8-----6666666666----8---| 
E|-4444444444----6-----4444444444----6---|  

Chorus: 
"So here's to the..........." 

Guitar 1 & 2: 
e|---------------------------------------------------------------------| 
B|---------------------------------------------------------------------| 
G|-------------------6666666666666---------------------8888888888888---| 
D|-10101010101010----6666666666666----6666666666666----8888888888888---| 
A|-10101010101010----4444444444444----6666666666666----6666666666666---| 
E|-888888888888-----------------------4444444444444--------------------| 

Repeat Intro 

Verse 2: 
"Nothin is better than........." 

Guitar 1: same intro 

Guitar 2: 
e|---------------------------------------| 
B|---------------------------------------| 
G|---------------------------------------| 
D|-6666666666----8-----6666666666----8---| 
A|-6666666666----8-----6666666666----8---| 
E|-4444444444----6-----4444444444----6---| 

Repeat Chorus 

Pre-Breakdown: 
"You can't get next to me........." 

Both: 
e|--------------------| 
B|--------------------| 
G|--------------------| 
D|-10---8---3-----6---| 
A|-10---8---3-----6---| 
E|-8----6---1-----4---| 

Then: 
"You can't read my mind......" 
e|----------------| 
B|----------------| 
G|----------------| 
D|-10---8-----6---| 
A|-10---8-----6---| 
E|-8----6-----4---| 

Breakdown: 
"All everything........." 
e|-----------------| 
B|-----------------| 
G|-5-----5---------| 
D|-5--5--5--8-8-8--| 
A|-3--5--3--8-8-8--| 
E|----3-----6-6-6--| 


Repeat Intro 

End on: 
e|-----| 
B|-----| 
G|-----| 
D|-8-8-| 
A|-8-8-| 
E|-6-6-|
            
Submit corrections


        This Time Next Year lessons Hard to play? Try these video lessons and learn fast This Time Next Year lessons
        
↑ Back to top | Tablatures and chords for acoustic guitar and electric guitar, ukulele, drums are parodies/interpretations of the original songs. You may use it for private study, scholarship, research or language learning purposes only