» » »

The Movielife - Single White Female Tabs

Artists:  A B C D E F G H I J K L M N O P Q R S T U V W X Y Z # 

Single White Female Tabs

(ver. 2) Click to play this song!
The Movielife
 Rating:
4/5 (4 votes)

 Single White Female lessons Tabs too difficult? Try these video lessons and learn fast
 
                Tunning: Half A Step Down 

x=Muted(Don't Press In Bar Chord) 
*=palm mute 
/=slide 
^=bend string 
h=hammer on 
p=pull off 
~=let it ring 
\=pickslide 

intro:
-----------999-1010--77777777--9999999------------------------------------------- 
-10101010--777-88----55555555--7777777------------------------------------------- 
-8888888---------------------------------------------------------------------- 

solo:
------------------------5----------------------------------------------------- 
----6-5------131313--------8--6----131313----------------------------------- 
-7--------3----------------------5-------------------------------------------- 
-5--------1----------------------3-------------------------------------------- 

chorus:
-777777--333333----------5555555---------------------------------------------- 
-555555--111111--3333333-3333333---------------------------------------------- 
-----------------1111111------------------------------------------------------ 

Post-chorus:
-3--5---3-----8-----3--5------------------------------------------------------- 
-1--6---1--6--6-----1--6--6-3-------------------------------------------------- 
-----------4--------------4-1--------------------------------------------------

----------
---------- 
----------
--3-~~~--- 
--1-~~~---
---------- 

Song order 
intro(4x's) 
Solo
chorus(2x's) 
Post-chorus(2x's) 
Intro(4x's) 
Solo
chorus(2x's) 
post-chorus(2x's)
            
Submit corrections


        Single White Female lessons Hard to play? Try these video lessons and learn fast Single White Female lessons
        
↑ Back to top | Tablatures and chords for acoustic guitar and electric guitar, ukulele, drums are parodies/interpretations of the original songs. You may use it for private study, scholarship, research or language learning purposes only