» » »

The Movielife - Once In A Row Tabs

Artists:  A B C D E F G H I J K L M N O P Q R S T U V W X Y Z # 

Once In A Row Tabs

(ver. 1) Click to play this song!
The Movielife
 Rating:
4/5 (4 votes)

 Once In A Row lessons Tabs too difficult? Try these video lessons and learn fast
 
                "Once In A Row" - The Movielife

Intro/Verse: 8 x's

e|---------------------------------------------------------------------------|
B|---------------------------------------------------------------------------|
G|------------------------4-4-4-4--------------------------------------------|
D|----6-6-6-6-6-6-2-2-2-2-4-4-4-4--------------------------------------------|
A|----6-6-6-6-6-6-2-2-2-2-2-2-2-2--------------------------------------------|
E|----4-4-4-4-4-4-0-0-0-0----------------------------------------------------|

Pre-Chorus/Chorus:  4 x's

e|---------------------------------------------------------------------------|
B|---------------------------------------------------------------------------|
G|-------------------------------6-6-6-6-6-6-6-6-----------------------------|
D|-2-2-2-2-2-2-2-2-7-7-7-7-7-7-7-6-6-6-6-6-6-6-6-7-7-7-7-7-7-7-7-------------|
A|-2-2-2-2-2-2-2-2-7-7-7-7-7-7-7-4-4-4-4-4-4-4-4-7-7-7-7-7-7-7-7-------------|
E|-0-0-0-0-0-0-0-0-5-5-5-5-5-5-5-----------------5-5-5-5-5-5-5-5-------------|

PreChorus/Chorus (cont'd)

e|---------------------------------------------------------------------------|
B|---------------------------------------------------------------------------|
G|-9-9-9-9-9-9-9-9-----------------6-6-6-6-6-6-6-6---------------------------|
D|-9-9-9-9-9-9-9-9-7-7-7-7-7-7-7-7-6-6-6-6-6-6-6-6-7-7-7-7-7-7-7-7-----------|
A|-7-7-7-7-7-7-7-7-7-7-7-7-7-7-7-7-4-4-4-4-4-4-4-4-7-7-7-7-7-7-7-7-----------|
E|-----------------5-5-5-5-5-5-5-5-----------------5-5-5-5-5-5-5-5-----------|

Bridge: (Palm muted really fast)

e|---------------------------------------------------------------------------|
B|---------------------------------------------------------------------------|
G|-6-------------------------------------------------------------------------|
D|-6-6-7-2-2-----------------------------------------------------------------|
A|-4-6-7-2-2-----------------------------------------------------------------|
E|---4-5-0-0-----------------------------------------------------------------|


End Part "Once in a row, I let things go.."
e|---------------------------------------------------------------------------|
B|---------------------------------------------------------------------------|
G|-9---7---------------------------------------------------------------------|
D|-9-9-7-7-------------------------------------------------------------------|
A|-7-9-5-7-------------------------------------------------------------------|
E|---7---5-------------------------------------------------------------------|
            
Submit corrections


        Once In A Row lessons Hard to play? Try these video lessons and learn fast Once In A Row lessons
        
↑ Back to top | Tablatures and chords for acoustic guitar and electric guitar, ukulele, drums are parodies/interpretations of the original songs. You may use it for private study, scholarship, research or language learning purposes only