Home » T » The Movielife »

The Movielife - Jamestown Tabs

Artists:  A B C D E F G H I J K L M N O P Q R S T U V W X Y Z # 

Jamestown Tabs

(ver. 1) Click to play this song!
The Movielife
The Movielife 
Jamestown 
Forty Hour Train Back To Penn 
************************************************************ 

INTRO 
[Both Guitars] 
e|---------------------------------------------------| 
B|---------------------------------------------------| 
G|--555--------555--------555---------3-3-3-3-3-3-3--| 
D|--555--xxxx--555--xxxx--555--xxxxx--3-3-3-3-3-3-3--| 
A|--333--xxxx--333--xxxx--333--xxxxx--1-1-1-1-1-1-1--| 
E|-------xxxx-------xxxx-------xxxxx-----------------| 
[Lightly barr the third fret to produce the harmonics] 

VERSE 
[Guitar 1] 
e|--------------------------------------------| 
B|--------------------------------------------| 
G|--5-5--------5-5------------------33333333--| 
D|--5-5--xxxx--5-5--xxxx--66666666--33333333--| 
A|--3-3--xxxx--3-3--xxxx--66666666--11111111--| 
E|-------xxxx-------xxxx--44444444------------| 

[Guitar 2] 
e|--------------------------------------------| 
B|--------------------------------------------| 
G|--5-5--------5-5--------88888888--33333333--| 
D|--5-5--xxxx--5-5--xxxx--xxxxxxxx--xxxxxxxx--| 
A|--3-3--xxxx--3-3--xxxx--66666666--11111111--| 
E|-------xxxx-------xxxx----------------------| 

CHORUS 
[Both Guitars] 
e|--------------------------------------------| 
B|--------------------------------------------| 
G|-5~-555555--3~-333333-----------------------| 
D|-5~-555555--3~-333333--6~-666666--55555555--| 
A|-3~-333333--1~-111111--6~-666666--55555555--| 
E|-----------------------4~-444444--33333333--| 

e|-----------------------------------------| 
B|-----------------------------------------| 
G|-55555555--33333333----------------------| 
D|-55555555--33333333--66666666--55555555--| 
A|-33333333--11111111--66666666--55555555--| 
E|---------------------44444444--33333333--| 

POST CHORUS 
[Both Guitars] 
e|--------------------------| 
B|--------------------------| 
G|-5~-\---------------------| 
D|-5~-\-Slide Downwards-----| 
A|-3~-\---------------------| 
E|--------------------------| 

BRIDGE 
[Guitar 1] 
e|-------------------------------------------| 
B|-------------------------------------------| 
G|-55555555--8888--3333--55555555--88888888--| 
D|-55555555--8888--3333--55555555--88888888--| 
A|-33333333--6666--1111--33333333--66666666--| 
E|-------------------------------------------| 

e|-------------------------------------------| 
B|-------------------------------------------| 
G|-55555555--8888----------------------------| 
D|-55555555--8888-8888---88888888--66666666--| 
A|-33333333--6666-8888---88888888--66666666--| 
E|----------------6666---66666666--44444444--| 

e|-------------------------------------------| 
B|-------------------------------------------| 
G|-----------------------------------------5-| 
D|-88888888--66666666--88888888--6666-8888-5-| 
A|-88888888--66666666--88888888--6666-8888-3-| 
E|-66666666--44444444--66666666--4444-6666---| 

[Guitar 2] 
There are some lead bits but I can't hear them 
well enough to tab them out... 

BREAKDOWN/INTERLUDE 
[Both Guitars] 
e|---------------------------------------------------| 
B|---------------------------------------------------| 
G|--5----------5----------5-----------3-3-3-3-3-3-3--| 
D|--5--xxxxxx--5--xxxxxx--5--xxxxxxx--3-3-3-3-3-3-3--| 
A|--3--xxxxxx--3--xxxxxx--3--xxxxxxx--1-1-1-1-1-1-1--| 
E|-----xxxxxx-----xxxxxx-----xxxxxxx-----------------| 
[Emphasise the harmonics during this part] 

OUTRO 
[Guitar 1] 
e|-----------------------------------------| 
B|-----------------------------------------| 
G|-55555555--55555555--55555555--33333333--| 
D|-55555555--55555555--55555555--33333333--| 
A|-33333333--33333333--33333333--11111111--| 
E|-----------------------------------------| 

[Guitar 2] 
e|-----------------------------------------| 
B|-----------------------------------------| 
G|-55555555--55555555--55555555--33333333--| 
D|-55555555--55555555--55555555--xxxxxxxx--| 
A|-33333333--33333333--33333333--11111111--| 
E|-----------------------------------------| 

SONG STRUCTURE 
Intro [x2] 
Verse [x4] 
Chorus [x1] 
Verse [x4] 
Chorus [x1] 
Bridge [x1] 
Breakdown [x2] 
Intro [x2] 
Chorus [x1] 
Outro [x2] 

************************************************************ 
            
Submit corrections

↑ Back to top | Tablatures and chords for acoustic guitar and electric guitar, ukulele, drums are parodies/interpretations of the original songs. You may use it for private study, scholarship, research or language learning purposes only