» » »

The Movielife - Hand Grenade Tabs

Artists:  A B C D E F G H I J K L M N O P Q R S T U V W X Y Z # 

Hand Grenade Tabs

(ver. 1) Click to play this song!
The Movielife
 Rating:
4/5 (4 votes)

 Hand Grenade lessons Tabs too difficult? Try these video lessons and learn fast
 
                THE MOVIELIFE
HAS A GAMBLING PROBLEM
HAND GRANADE

NORMALTUNING

INTRO/VERSE (BOTH GUITARS)

|----------------------------------------------------|
|----------------------------------------------------|
|----------------------------------------------------|
|--5-5-5-------------X-X-X--5-5-5-------8-8-8-8-8-8--|
|--3-3-3-6-6-6-8-8-8-X-X-X--3-3-3-6-6-6-6-6-6-6-6-6--|
|--------4-4-4-6-6-6-X-X-X--------4-4-4--------------|x4

CHORUS (BOTH GUITARS)
|---------------------------------------|-----------------------------------|
|---------------------------------------|-----------------------------------|
|---------------------------------------|-----------------------------------|
|---------------------------------------|-----------------------------------|
|--6-6-6-6-6-6-6-6-3-3-3-3-3-3-3-3------|--6-6-6-6-6-6-6-6-8-8-8-8-8-8-8-8--|
|--4-4-4-4-4-4-4-4-1-1-1-1-1-1-1-1--X3--|--4-4-4-4-4-4-4-4-6-6-6-6-6-6-6-6--|

BREAK (LITTLE SOLO BIT)

GUITAR 1
|-------------11--------------------------/10-10-10-10-8-10-10p8h10p8h10p8-8b--|
|-------9h11-----11p9\7----------------------------------------------------8b--|
|--8h10-----------------6-8b10-10-10-8-----------------------------------------|
|--------------------------------------10~-------------------------------------|
|------------------------------------------------------------------------------|
|------------------------------------------------------------------------------|

GUITAR 2 PLAYS THE INRO/VERSE RIFF


------------------------------
VERSE 2 - INTRO/VERSE RIFF x2
------------------------------
CHORUS 2 - SAME
------------------------------

BRIDGE

GUITAR 1
|----------------------3----|
|--------4-----------4---4--|
|----3-3---3-------3--------|
|--5---------5---5----------|
|---------------------------|
|---------------------------|x4

GUITAR 2
|---------------------------------------------------------|
|---------------------------------------------------------|
|---------------------------------------------------------|
|--8X88X8------------------------8X88X8-------------------|
|--6X66X6--8X88X8--6X66X6-8X88X8-6X66X6-8X88X8-6X66X6--6--|
|----------6X66X6--4X44X4-6X66X6--------6X66X6-4X44X4--4--|x1 
pm...................................................      


-----------------------------
VERSE 3 - x4
-----------------------------
CHORUS 3 - SAME
-----------------------------
OUTRO

GUITAR 1 - PLAY THE NOTES FROM THE BRIDGE

GUITAR 2 - STRUM BRIDGE CHORDS
----------------------------------------
            
Submit corrections


        Hand Grenade lessons Hard to play? Try these video lessons and learn fast Hand Grenade lessons
        
↑ Back to top | Tablatures and chords for acoustic guitar and electric guitar, ukulele, drums are parodies/interpretations of the original songs. You may use it for private study, scholarship, research or language learning purposes only