» » »

The Movielife - 10 Seconds Too Late Tabs

Artists:  A B C D E F G H I J K L M N O P Q R S T U V W X Y Z # 

10 Seconds Too Late Tabs

(ver. 2) Click to play this song!
The Movielife
 Rating:
4/5 (4 votes)

 10 Seconds Too Late lessons Tabs too difficult? Try these video lessons and learn fast
 
                Tunning: Half A Step Down 

x=Muted(Don't Press In Bar Chord) 
*=palm mute 
/=slide 
^=bend string 
h=hammer on 
p=pull off 
~=let it ring 
\=pickslide 

Intro:(Both Guitars)
e|--------------------------------------------------------| 
B|--------------------------------------------------------| 
G|---7-7-7-7-7-7-7-7-7-------------------7-7-7-7-7-7-7-7--| 
D|---7-7-7-7-7-7-7-7-7--8-8-8-8-8-8-8-8--7-7-7-7-7-7-7-7--| 
A|---5-5-5-5-5-5-5-5-5--8-8-8-8-8-8-8-8--5-5-5-5-5-5-5-5--| 
E|----------------------6-6-6-6-6-6-6-6-------------------| 

e|------------------------------------------------------------| 
B|------------------------------------------------------------| 
G|--------------------------7-7-7-7-7-7-7-7-------------------| 
D|---8-8-8-8--10-10-10-10---7-7-7-7-7-7-7-7--8-8-8-8-8-8-8-8--| 
A|---8-8-8-8--10-10-10-10---5-5-5-5-5-5-5-5--8-8-8-8-8-8-8-8--| 
E|---6-6-6-6--8--8--8--8---------------------6-6-6-6-6-6-6-6--| 

e|---------------------------------| 
B|---------------------------------| 
G|---7-7-7-7-7-7-7--5-5-5-5-5-5-5--| 
D|---7-7-7-7-7-7-7--5-5-5-5-5-5-5--| 
A|---5-5-5-5-5-5-5--3-3-3-3-3-3-3--| 
E|---------------------------------| 

Verse:(Guitar 1)       [Repeat Twice]
e|--------------------------------------------------------| 
B|--------------------------------------------------------| 
G|---7-7-7-7-7-7-7-7-7-------------------7-7-7-7-7-7-7-7--| 
D|---7-7-7-7-7-7-7-7-7--8-8-8-8-8-8-8-8--7-7-7-7-7-7-7-7--| 
A|---5-5-5-5-5-5-5-5-5--8-8-8-8-8-8-8-8--5-5-5-5-5-5-5-5--| 
E|----------------------6-6-6-6-6-6-6-6-------------------| 

e|------------------------------------------------------------| 
B|------------------------------------------------------------| 
G|--------------------------7-7-7-7-7-7-7-7-------------------| 
D|---8-8-8-8--10-10-10-10---7-7-7-7-7-7-7-7--8-8-8-8-8-8-8-8--| 
A|---8-8-8-8--10-10-10-10---5-5-5-5-5-5-5-5--8-8-8-8-8-8-8-8--| 
E|---6-6-6-6--8--8--8--8---------------------6-6-6-6-6-6-6-6--| 

e|---------------------------------| 
B|---------------------------------| 
G|---7-7-7-7-7-7-7--5-5-5-5-5-5-5--| 
D|---7-7-7-7-7-7-7--5-5-5-5-5-5-5--| 
A|---5-5-5-5-5-5-5--3-3-3-3-3-3-3--|
E|---------------------------------| 
 
Chorus
e|---------------------------------------------------------------------| 
B|---------------------------------------------------------------------| 
G|------------------8-8-8-8-8-8-8-8-------------------1010101010101010-| 
D|-5-5-5-5-5-5-5-5--8-8-8-8-8-8-8-8--8-8-8-8-8-8-8-8--1010101010101010-| 
A|-5-5-5-5-5-5-5-5--6-6-6-6-6-6-6-6--8-8-8-8-8-8-8-8--8-8-8-8-8-8-8-8--| 
E|-3-3-3-3-3-3-3-3-------------------6-6-6-6-6-6-6-6-------------------| 

Riff:(Guitar 2) [After Chorus]
e|----------------------------------------| 
B|--------------------------------5--3----| 
G|--2--------2------2-------2--5-------5--| 
D|----5-3-----5-3----5-3------------------| 
A|--------3-------3------3----------------| 2x
E|----------------------------------------| 

Bridge:(Guitar 1)
e|------------------------------| 
B|------------------------------| 
G|--------------7-7-7-7---------| 
D|--5-5-5-5-5---7-7-7-7---8-----| 
A|--5-5-5-5-5---5-5-5-5---8-----| 
E|--3-3-3-3-3-------------6-----| 

Pre-Breakdown 2X 
e|--------------------------------------------| 
B|--------------------------------------------| 
G|-----7-7-7-7--------------------------------| 
D|-----7-7-7-7--8-8-8-8-10-10-10-10--8-8-8-8--| 
A|-----5-5-5-5--8-8-8-8-10-10-10-10--8-8-8-8--| 
E|--------------6-6-6-6--8--8--8--8--6-6-6-6--| 

Breakdown: (Same As Pre-Breakdown But With A Different Rhythm) 
e|--------------------------------------------| 
B|--------------------------------------------| 
G|-----7-7-7-7--------------------------------| 
D|-----7-7-7-7--8-8-8-8-10-10-10-10--8-8-8-8--| 
A|-----5-5-5-5--8-8-8-8-10-10-10-10--8-8-8-8--| 
E|--------------6-6-6-6--8--8--8--8--6-6-6-6--| 
                 [Both Guitars]
            
Submit corrections


        10 Seconds Too Late lessons Hard to play? Try these video lessons and learn fast 10 Seconds Too Late lessons
        
↑ Back to top | Tablatures and chords for acoustic guitar and electric guitar, ukulele, drums are parodies/interpretations of the original songs. You may use it for private study, scholarship, research or language learning purposes only