» » »

Theme Songs - Terminator Tabs

Artists:  A B C D E F G H I J K L M N O P Q R S T U V W X Y Z # 

Terminator Tabs

(ver. 1) Click to play this song!
Theme Songs
 Rating:
3.4/5 (5 votes)
                E|------------------------------------------------------------12--10----------------
B|---10--12--13---13--12-------------10--12--13---13--12----------------------------
G|------------------------12--5---------------------------12------------------------
D|----------------------------------------------------------------------------------
A|----------------------------------------------------------------------------------
E|----------------------------------------------------------------------------------

E|----------------------------------------------------------------------------------
B|---10--12--13---13--12------------------------------------------------------------
G|------------------------12--7---------5-----5-4-----------------------------------
D|-----------------------------------------7----------------------------------------
A|----------------------------------------------------------------------------------
E|----------------------------------------------------------------------------------

     PLAY WITH AN EFFECTS PEDAL IT SOUNDS PRETTY SWEET.

   -T.M.S
            
Submit corrections

↑ Back to top | Tablatures and chords for acoustic guitar and electric guitar, ukulele, drums are parodies/interpretations of the original songs. You may use it for private study, scholarship, research or language learning purposes only