» » »

Theme Songs - Mission Impossible Bass

Artists:  A B C D E F G H I J K L M N O P Q R S T U V W X Y Z # 

Mission Impossible Bass

(ver. 2) Click to play this song!
Theme Songs
 Rating:
4/5 (4 votes)
                (Theme)
This is the REAL MI theme, its the only real one.




G-------------------------------------------  Play it a few times
D----------46-------------------------------
A----6-6----------6-6-45--------------------
E-------------------------------------------

G------------------------- This too
D---------4-6-------------
A-6-6-6-6-----6-6-6-6-4-5-
E-------------------------


If you like it rate it high, if you hate it rate it low.


THX
            
Submit corrections

↑ Back to top | Tablatures and chords for acoustic guitar and electric guitar, ukulele, drums are parodies/interpretations of the original songs. You may use it for private study, scholarship, research or language learning purposes only