» » »

Theme Songs - Formula Bass

Artists:  A B C D E F G H I J K L M N O P Q R S T U V W X Y Z # 

Formula Bass

(ver. 2) Click to play this song!
Theme Songs
 Rating:
4.2/5 (5 votes)
                "(1)
(Theme)
g|-----------------
d|-----------------
a|-0-0-2-3-2---0-2-
e|-----------3----0

g|-----------------
d|-----------------
a|-0-0-2-3-2---0-2-
e|-----------3----0

g|-----------------
d|-----------------
a|-0-0-2-3-2---0-2-
e|-----------3----0

thats iz the whole thing as it iz just a riff but enjoy
"            
Submit corrections

↑ Back to top | Tablatures and chords for acoustic guitar and electric guitar, ukulele, drums are parodies/interpretations of the original songs. You may use it for private study, scholarship, research or language learning purposes only