» » »

Theme Songs - Auld Lang Syne Tabs

Artists:  A B C D E F G H I J K L M N O P Q R S T U V W X Y Z # 

Auld Lang Syne Tabs

(ver. 1) Click to play this song!
Theme Songs
 Rating:
4/5 (4 votes)
    Auld Lang Syne lessons Tabs too difficult? Try these video lessons and learn fast
                E]------------5-----------5-------5-8-10----10-8-5-5---------------5-----------------
B]----6-5-6-----8-6-8--------6-6--------------------------6-8-6-8----6--------6------
G]-5--------------------------------------------------------------------7-7-5--------
D]-----------------------------------------------------------------------------------
A]-----------------------------------------------------------------------------------
E]-----------------------------------------------------------------------------------

E]-10-8-5-5------------10-8-5-5-8-10----10-8-5-5-----------------5-------------------
B]------------6-8-6-8-----------------------------------6-8-6-8----6--------6--------
G]-------------------------------------------------------------------7-7-5-----------
D]-----------------------------------------------------------------------------------
A]-----------------------------------------------------------------------------------
E]-----------------------------------------------------------------------------------
            
Submit corrections

↑ Back to top | Tablatures and chords for acoustic guitar and electric guitar, ukulele, drums are parodies/interpretations of the original songs. You may use it for private study, scholarship, research or language learning purposes only