Home » T » The Marvelettes »

The Marvelettes - Please Mr Postman Bass

Artists:  A B C D E F G H I J K L M N O P Q R S T U V W X Y Z # 

Please Mr Postman Bass

(ver. 2) Click to play this song!
The Marvelettes
Original Intro:          (Break)
G|-------------------------
D|-------------------------
A|-55555555---55555554---2-
E|-------------------------

Alternative Intro:
G|-------------------------------------------
D|-------------------------------------------
A|-55555555---55555554---22222222---22222224-
E|-------------------------------------------

Verse & Chorus:                             (Repeats Throughout The Song)
G|-----------------------------------------------------------------------
D|-----------------------------------------------------------------------
A|-5-5---5-5---5-4-2-2---2-2---2-0----5-----5----------------------8-7-6-
E|----5-----5---------2-----2------3-3---3-3---3-4-55555555---55555------

Alternative Verse & Chorus Later in the Song:
G|----------------------------------------------------------------------
D|----7---------------4------------------5-5----------------------------
A|-5-5---5-5---5-4-2-2---2-2---2-0----5-----5-----------------------7-6-
E|----------5---------------2------3-3--------3-4-55555555---555555-----

            
Submit corrections

↑ Back to top | Tablatures and chords for acoustic guitar and electric guitar, ukulele, drums are parodies/interpretations of the original songs. You may use it for private study, scholarship, research or language learning purposes only