» » »

The Maccabees - Precious Time Tabs

Artists:  A B C D E F G H I J K L M N O P Q R S T U V W X Y Z # 

Precious Time Tabs

(ver. 2) Click to play this song!
The Maccabees
 Rating:
4.5/5 (8 votes)

 Precious Time lessons Tabs too difficult? Try these video lessons and learn fast
 
                INTRO
GUITAR 1
E-------------------------------------------------------------------|
B-12----------------------------------------------------------------|
G-121212121212121212121212121212121212121212121212121212121212121212
D-121212121212121212121212121212121212121212121212121212121212121212
A-101010101010101010101010101010101010101010101010101010101010101010
E-------------------------------------------------------------------
                                  ^
GUITAR 2
E---12-10--12-15--12-10-12-10--10-|
B-12-----12-----12-----------12---|
G---------------------------------|PLAY WHEN GUITAR 1
D---------------------------------|GETS TO MARK ^
A---------------------------------|
E---------------------------------|

VERSE

GUITAR 1
 PM
E------------------------------------------------|
B------------------------------------------------|
G------------------------------------------------| X2
D------------------------------------------------|
A101010101010101010101010101012107777777777777755
E------------------------------------------------

GUITAR 2
E----------------/10-12-10-------------|
B12-----------------------12-----------|
G12---------------------------/12-11---| X2
D12-LET RING---------------------------|
A10-FOR 6 BEATS------------------------|
E--------------------------------------|

CHORUS

GUITAR 1
E---------|
B---------|
G-1212/999
D-1212/999 LISTEN TO SONG FOR TIMING
A-1010/777
E---------

GUITAR 2
E---10--10--10--10--10--10--10--9----|
B-12--12--12--12--12--12--12--10-10--|
G------------------------------------|
D------------------------------------| X4
A------------------------------------|
E------------------------------------|

BRIDGE

GUITAR 1
 PM
E---------------------------------|
B---------------------------------|
G-7777777777777777----------------|
D-77777777777777777777777777777777
A-55555555555555557777777777777777
E-----------------5555555555555555

VERSE

CHORUS

BRIDGE

GUITAR 1
 PM
E-----------------------------------|
B-----------------------------------|
G-7777777777777777----------------5-|
D-777777777777777777777777777777775 LET RING HOLD FOR 2 BARS
A-555555555555555577777777777777773
E-----------------5555555555555555-
                                  ^
GUITAR 2
E---12-10--12-15--12-10-12-10--10-|
B-12-----12-----12-----------12---|
G---------------------------------|PLAY 8X WHEN GUITAR 1
D---------------------------------|GETS TO MARK ^
A---------------------------------|
E---------------------------------|

GUITAR 1

E-----------------------------------------------------------|
B-----------------------------------------------------------|
G-----------------------------------------------------------|
D-----------------------------------------------------------|
A10101010101010101010109997712121212121212121212121212121212
E-----------------------------------------------------------

FIRST TIME PLAY PM SECOND OPEN
E--------------------------------------------------------------|
B--------------------------------------------------------------|
G12121212121212121212121111119914141414141414141414141414141414
D12121212121212121212121111119914141414141414141414141414141414 X2
A10101010101010101010109-9-9-7712121212121212121212121212121212-|
E---------------------------------------------------------------|
  'LETS TAKE OUR PRECIOUS TIME ABOUT IT''LETS TAKE................'
E------------------------------------8--------------------------------|
B12----------------------------------8----------------------------12--|
G12----------------------------------9----------------------------12--|
D12HOLD-----------------------------10-HOLD-----------------------12--| X2
A10---------------------------------10----------------------------10--|
E------------------------------------8--------------------------------|

VERSE

CHORUS

BRIDGE
HEAVY PART OF BRIDGE IS THE SAME BUT STRUMMING

SOLO
E------1010101010------1010101010------1010101010------1010101010-|
B-----------------------------------------------------------------|
G121212----------121212----------121212----------121212-----------|
D-----------------------------------------------------------------|
A-----------------------------------------------------------------|
E-----------------------------------------------------------------|

E12P10--12P10--12P10--14P10--14P10--14-----------------101010------10-|
B-----10-----10-----10-----10-----10---1212121212121212------101010---|
G---------------------------------------------------------------------|
D---------------------------------------------------------------------|
A---------------------------------------------------------------------|
E---------------------------------------------------------------------|

OVER THE SOLO
E---------------------------------|
B---------------------------------|
G121212121212121212121212111112/11 X4
D121212121212121212121212111112/11
A1010101010101010101010109-9-10/9-|
E---------------------------------|

OUTRO
  D                               A                 D
 We’ll need heart and we’ll need courage in these times
E--------------------------------5--------------------|
B-7------------------------------5------------------7-|
G-7------------------------------6------------------7-|
D-7HOLD--------------------------7HOLD--------------7-|
A-5------------------------------7------------------5-|
E--------------------------------5--------------------|
                           A        A    C     G
 Because time can mean so much and you steal mine
E--------------------------5--------5----------3/
B--------------------------5--------5----5-----3/
G--------------------------6--------6----5-----4/  SLIDE CHORD UP THE
D--------------------------7--------7----5-----5/
A--------------------------7--------7----3-----5/
E--------------------------5--------5----------3/

BY CHARLIE
            
Submit corrections


        Precious Time lessons Hard to play? Try these video lessons and learn fast Precious Time lessons
        
↑ Back to top | Tablatures and chords for acoustic guitar and electric guitar, ukulele, drums are parodies/interpretations of the original songs. You may use it for private study, scholarship, research or language learning purposes only