Home » T » The Maccabees »

The Maccabees - Can You Give It? Tabs

Artists:  A B C D E F G H I J K L M N O P Q R S T U V W X Y Z # 

Can You Give It? Tabs

(ver. 1) Click to play this song!
The Maccabees
                -------------------------------------------------------------------------------
              Can You Give It - The Maccabees
-------------------------------------------------------------------------------

I tried my best to work out all the parts 
but its pretty hard to hear some parts and 
also hard to tell which guitar is playing what. 
If you have anything to add please do so. Cheers.

Intro

Guitar 1
e|-------------------19--17--|
B|-17----15----17------------|
G|---------------------------| repeat
D|---------------------------|
A|---------------------------|
E|---------------------------|

Guitar 2
e|-8---------7--5------------|
B|-8---------8--5------------|
G|-9---------9--5------------|
D|-10--------9--7------------|
A|-10--------7--7------------|
E|-8------------5------------|

(0:28)

Guitar 1

e|---------------------------|
B|---------------------------|
G|-17----17----17------------| repeat
D|--x-----x-----x------------|
A|-15----15----15------------|
E|---------------------------|

Guitar 2
e|--------------------------------------|
B|--------------------------------------|
G|--------------------------------------|
D|--------------------------------------|
A|--------------------------------------|
E|----------------15-15-15-17-15-13-12--|

Verse chords

Am/C

(0:42)

Guitar2
e|----------------------------------------------------|
B|----------------------------------------------------|
G|----------------------------------------------------|
D|----------------------------------------------------|
A|-----15-17-15-14-15-14-12-14-12-10-12-10-7-s-10-10--|
E|-15-------------------------------------------------|

Chorus chords

C/C/C/C

Guitar 2
e|--------------------------------------------------------------------------|
B|--------------------------------------------------------------------------|
G|--------------------------------------------------------------------------| repeat
D|--------------------------------------------------------------------------|
A|-15-15-15-15-15-15-17-17-17-17-17-17-19-19-19-19-19-19--------------------|
E|-------------------------------------------------------15-15-15-17-15-13--|
Play intro until

(1:50)

e|---------------------------|
B|---------------------------|
G|-17----17----17------------| repeat
D|--x-----x-----x------------|
A|-15----15----15------------|
E|---------------------------|

Play chorus then intro until

Variation (2:26)
e|-------------------19s17-15-17p15-----|
B|-17----15----17-------------------15--|
G|--------------------------------------| 
D|--------------------------------------|
A|--------------------------------------|
E|--------------------------------------|

Outro

e|-12-------12-------12-------12------------|
B|----13-------13-------13-------13-----13--|
G|-------14-------14-------14-------14--12--|
D|--------------------------------------14--|
A|------------------------------------------|
E|------------------------------------------|

| s  slide 
| h  hammer-on
| p  pull-off
| x  Mute note
            
Submit corrections

↑ Back to top | Tablatures and chords for acoustic guitar and electric guitar, ukulele, drums are parodies/interpretations of the original songs. You may use it for private study, scholarship, research or language learning purposes only