» » »

The Kills - U.R.A. Fever Tabs

Artists:  A B C D E F G H I J K L M N O P Q R S T U V W X Y Z # 

U.R.A. Fever Tabs

(ver. 2) Click to play this song!
The Kills
 Rating:
4/5 (4 votes)

 U.R.A. Fever lessons Tabs too difficult? Try these video lessons and learn fast
 
                Tunning: C# standard + Drop B (BF#BEG#c#)



Intro: Telephone Noises


1st Verse:

C#|-----------------------------------------------------|
G#|-----------------------------------------------------|
E |-----------------------------------------------------|  x4
B |-14-14-14-14-14-14-14-14---10-10-10-10-10-10-10-10---|
F#|-12-12-12-12-12-12-12-12---10-10-10-10-10-10-10-10---|
B |---------------------------10-10-10-10-10-10-10-10---|

C#|------------------------------------------------------|
G#|------------------------------------------------------|
E |------------------------------------------------------|  x4
B |--14-14------------10b---------10-10-10-10-10-10-10---|
F#|--12-12--10-10--12-------------10-10-10-10-10-10-10---|
B |-------------------------------10-10-10-10-13-10-13---|



Chorus:

C#|---------------------------------------------------|
G#|---------------------------------------------------|
E |---------------------------------------------------|  x4
B |-14-14-14-14-14-14-14-14---10-10-10-10-10-10-10----|
F#|-12-12-12-12-12-12-12-12---10-10-10-10-10-10-10----|
B |---------------------------10-10-10-10-13-10-13----|



1st Break Riff

C#|---------------------------------------------------|
G#|---------------------------------------------------|
E |---------------10b-r10-----------------------------|  x4
B |--14-14-14-14--10b-r10-----------------------------|
F#|--12-12-12-12----------------10-10-10-10-10-10-10--|
B |-----------------------------10-10-10-10-13-10-13--|



2nd Verse:

C#|---------------------------------------------------|
G#|---------------------------------------------------|
E |---------------------------------------------------|  x4
B |-14-14-14-14-14-14-14-14---10-10-10-10-10-10-10----|
F#|-12-12-12-12-12-12-12-12---10-10-10-10-10-10-10----|
B |---------------------------10-10-10-10-13-10-13----|


C#|------------------------------------------------------|
G#|------------------------------------------------------|
E |------------------------------------------------------|  x3
B |--14-14------------10b---------10-10-10-10-10-10-10---|
F#|--12-12--10-10--12-------------10-10-10-10-10-10-10---|
B |-------------------------------10-10-10-10-13-10-13---|


C#|-----------------------------------------------------|
G#|-----------------------------------------------------|
E |-----------------------------------------------------|  
B |--14-14------------10b---------10-10-10-10-10-10\----|
F#|--12-12--10-10--12-------------10-10-10-10-10-10\----|
B |-------------------------------10-10-10-10-13-10\----|




2nd Break Riff (with effects)

C#|---------------------------------------------------|
G#|--------------13-------------------13--15~~--------|
E |--------------12-------------------12--14~~--------| 
B |--------------10--------12--12-12--12--12~~--------|
F#|--10--10-10--(10)-------12--12-12------------------|
B |--10--10-10-----------------12-12------------------|

C#|---------------------------------------------------|
G#|--------------13-------------------15--13~~--------|
E |--------------12-------------------14--12~~--------| 
B |--------------10--------12--12-12--12--12~~--------|
F#|--10~~-------(10)-------12--12-12------12----------|
B |--10~~----------------------12-12------------------|

C#|------------------------------------------------------|
G#|--------------13-------------------13-13--15~~--------|
E |--------------12-------------------12-12--14~~--------| 
B |--------------10--------12--12-12--12-12--12~~--------|
F#|--10--10-10--(10)-------12--12-12---------------------|
B |--10--10-10-----------------12-12---------------------|

C#|-------------------------------------------------------------|
G#|--------------13-----------------13-13--------15~~-----------|
E |--------------12-----------------12-12--------14~~-----------| 
B |--------------10----------12-12--12-12--------12~~---0-10\---|
F#|--10--10-10--(10)---------12-12---------12-12--------0-10\---|
B |--10--10-10---------------12-12---------12-12--------0-10\---|



Chorus: 

 - First Four Lines No guitar 

C#|---------------------------------------------------|
G#|---------------------------------------------------|
E |---------------------------------------------------|  x4
B |-14-14-14-14-14-14-14-14---10-10-10-10-10-10-10----|
F#|-12-12-12-12-12-12-12-12---10-10-10-10-10-10-10----|
B |---------------------------10-10-10-10-13-10-13----|


C#|------------------------------------------------------|
G#|------------------------------------------------------|
E |------------------------------------------------------|  x3
B |--14-14------------10b---------10-10-10-10-10-10-10---|
F#|--12-12--10-10--12-------------10-10-10-10-10-10-10---|
B |-------------------------------10-10-10-10-13-10-13---|


C#|-----------------------------------------------------||
G#|-----------------------------------------------------||
E |-----------------------------------------------------|| 
B |--14-14------------10b---------10-10-10-10-10-10\----||
F#|--12-12--10-10--12-------------10-10-10-10-10-10\----||
B |-------------------------------10-10-10-10-13-10\----||
            
Submit corrections


        U.R.A. Fever lessons Hard to play? Try these video lessons and learn fast U.R.A. Fever lessons
        
↑ Back to top | Tablatures and chords for acoustic guitar and electric guitar, ukulele, drums are parodies/interpretations of the original songs. You may use it for private study, scholarship, research or language learning purposes only