» » »

The Kills - Goodnight Bad Morning Tabs

Artists:  A B C D E F G H I J K L M N O P Q R S T U V W X Y Z # 

Goodnight Bad Morning Tabs

(ver. 2) Click to play this song!
The Kills
 Rating:
4.6/5 (11 votes)

 Goodnight Bad Morning lessons Tabs too difficult? Try these video lessons and learn fast
 
                -------------------------------------------------------------------------------
-------------------------------------------------------------------------------


Tuning: B F# B E G# C#   OR   E A D G B E


Either you tune it B F# B E G# C# and play it like this:

Chords are F and A#.

C# |-------------------------------------|
G# |-------------------------------------|
E  |-------5-------5-------6-------6-----|
B  |-----6---6---6---6---6---6---6---6---| 
F# |-------------------4-------4---------|
B  |---6-------6-------------------------|


...or you tune it E A D G B E (standard) and play it like this:

E |-------------------------------------|
B |-------------------------------------|
G |-------2-------2-------3-------3-----|
D |-----3---3---3---3---3---3---3---3---| 
A |-------------------1-------1---------|
E |---1-------1-------------------------|


This repeats throughout the whole song.

Good luck!
Please e-mail or comment suggestions etc...


| ^  bend
| /  slide up
| \  slide down
| h  hammer-on
| p  pull-off
| ~  vibrato
| +  harmonic
| x  Mute note
===============================================================================
            
Submit corrections


        Goodnight Bad Morning lessons Hard to play? Try these video lessons and learn fast Goodnight Bad Morning lessons
        
↑ Back to top | Tablatures and chords for acoustic guitar and electric guitar, ukulele, drums are parodies/interpretations of the original songs. You may use it for private study, scholarship, research or language learning purposes only