Home » T » The Icarus Account »

The Icarus Account - Favorite Girl Tabs

Artists:  A B C D E F G H I J K L M N O P Q R S T U V W X Y Z # 

Favorite Girl Tabs

(ver. 2) Click to play this song!
The Icarus Account
Intro
e|-------------------------------------------------------------------------------------------|
B|------0---0---0---0----3--x--3-----3--x--3-----0---0---0---0----3--x--3-----3--x--3--------|
G|-----0---0---0---0-----0--x--0-----0--x--0----0---0---0---0-----0--x--0-----0--x--0--------|
D|-------------------------------------------------------------------------------------------|
A|---10---9---7---5---3-----------3----------10---9---7---5---3-----------3------------------|
E|-------------------------------------------------------------------------------------------|
     G   F#m  Em  D   C                      G   F#m  Em  D   C

Verse
e|-------------------------------------------------------------------------------------------|
B|------0---0---0---0----3--x--3-----3--x--3-----0---0---0---0----3--x--3-----3--x--3--------|
G|-----0---0---0---0-----0--x--0-----0--x--0----0---0---0---0-----0--x--0-----0--x--0--------|
D|-------------------------------------------------------------------------------------------|  2x
A|---10---9---7---5---3-----------3----------10---9---7---5---3-----------3------------------|
E|-------------------------------------------------------------------------------------------|
     G   F#m  Em  D   C                      G   F#m  Em  D   C

Pre-Chorus
e|----------------------------------------------------------------------------|
B|------3--x--3-------------3--x--3---------------3--x--3--3--x-----3---------|
G|------0--x--0-------------0--x--0---------------0--x--0--0--x-----0---------|
D|------2--x--2----0---0----0--x--0-----0----0----0--x--0--0--x-----0---------|
A|-----------------------------------------2---3--------3--------3------------|
E|---0-----------0---2---3------------3---------------------------------------|
     Em             F#m  G            G     Bm  C

Chorus
     -   - -   - -   -   - -   - -   -   - -   - -   -   - -   - -
e|---3---x-x---x-x---2---x-x---x-x---3---x-x---x-x---3---x-x---x-x------------|
B|---3---x-x---x-x---3---x-x---x-x---3---x-x---x-x---3---x-x---x-x------------|
G|---0---x-x---x-x---2---x-x---x-x---0---x-x---x-x---0---x-x---x-x------------|
D|---2---x-x---x-x---0---x-x---x-x---0---x-x---x-x---2---x-x---x-x------------|
A|---3---x-x---x-x-------x-x---x-x---2---x-x---x-x---2---x-x---x-x------------|
E|-------x-x---x-x-------x-x---x-x---3---x-x---x-x---0---x-x---x-x------------|
     C               D               G               Em

     -   - -   - - - -   - -   - - - -   - -   - - -   -   -   - - 
  -
e|---3---x-x---x-x-x-2---x-x---x-x-x-3---x-x---x-x-3---3-x-3---3-3---0--------|
B|---3---x-x---x-x-x-3---x-x---x-x-x-3---x-x---x-x-3---3-x-3---3-3---0--------|
G|---0---x-x---x-x-x-2---x-x---x-x-x-0---x-x---x-x-0---0-x-0---0-0---0--------|
D|---2---x-x---x-x-x-0---x-x---x-x-x-0---x-x---x-x-2---2-x-2---2-2---0--------|
A|---3---x-x---x-x-x-----x-x---x-x-x-2---x-x---x-x-2---2-x-2---2-2---0--------|
E|-------x-x---x-x-x-----x-x---x-x-x-3---x-x---x-x-0---0-x-0---0-0---0--------|
     C               D               G             E

Uuuuu~
     -   - -   - - - -   - -   - - - -   -   -   -   -   - -   - -
e|---3---3-3---3-3-0-2---2-2---2-2-0-3---3---x---x---3---3-3---3-3------------|
B|---3---3-3---3-3-0-3---3-3---3-3-0-3---3---3---3---3---3-3---3-3------------|
G|---0---0-0---0-0-0-2---2-2---2-2-0-0---0---2---2---0---0-0---0-0------------|
D|---2---2-2---2-2-0-0---0-0---0-0-0-0---0---x---x---2---2-2---2-2------------|
A|---3---3-3---3-3-0-----------------2---2---x---x---2---2-2---2-2------------|
E|-----------------------------------3---3---2---2---0---0-0---0-0------------|
     C               D               G      F#m      E

     -   - -   - - - -   - -   - - - -   -   -   -   -   - -   - -
e|---3---3-3---3-3-0-2---2-2---2-2-0-3---3---x---x---3---3-3---3-3------------|
B|---3---3-3---3-3-0-3---3-3---3-3-0-3---3---3---3---3---3-3---3-3------------|
G|---0---0-0---0-0-0-2---2-2---2-2-0-0---0---2---2---0---0-0---0-0------------|
D|---2---2-2---2-2-0-0---0-0---0-0-0-0---0---x---x---2---2-2---2-2------------|
A|---3---3-3---3-3-0-----------------2---2---x---x---2---2-2---2-2------------|
E|-----------------------------------3---3---2---2---0---0-0---0-0------------|
     C               D               G      F#m      E

     -   - -   - - - -
e|---3---3-3---3-3-3-3---|
B|---3---3-3---3-3-3-3---|
G|---0---0-0---0-0-0-0---|
D|---2---2-2---2-2-2-2---|
A|---3---3-3---3-3-3-3---|
E|-----------------------|
   
            
Submit corrections

↑ Back to top | Tablatures and chords for acoustic guitar and electric guitar, ukulele, drums are parodies/interpretations of the original songs. You may use it for private study, scholarship, research or language learning purposes only