Home » T » The Icarus Account »

The Icarus Account - Control Tabs

Artists:  A B C D E F G H I J K L M N O P Q R S T U V W X Y Z # 

Control Tabs

(ver. 2) Click to play this song!
The Icarus Account
Verse 1:
D#|--x-x-----00-x----0---x----0---0-0-0-0--00-x------0---x----0---0-0-0----|
 B|--x-x-----00-x----0---x----0---0-0-0-0--00-x------0---x----0---0-0-0----|
F#|- x-x-----00-x----0---x----0---0-0-0-0--00-x------0---x----0---0-0-0----|
 B|--x-x-----00-x----0---x----0---0-0-0-0--00-x------0---x----0---0-0-0----|
F#|--x-x-----00-x----0---x----0---0-0-0-0--00-x------0---x----0---0-0-0----|
 B|--x-x-----00-x----4/12x----5---5-5-5-5--99-x------4/12x----5---5-5-5----|

Prechorus ("I'm gonna write it down")
D#|-0--0--0-0-0---x--0--0--0-0-0--x---0--0--0-0-0--x--0-0-0-0-0-0-0-0-0|
 B|-0--0--0-0-0---x--0--0--0-0-0--x---0--0--0-0-0--x--0-0-0-0-0-0-0-0-0|
F#|-0--0--0-0-0---x--0--0--0-0-0--x---0--0--0-0-0--x--0-0-0-0-0-0-0-0-0|
 B|-0--0--0-0-0---x--0--0--0-0-0--x---0--0--0-0-0--x--0-0-0-0-0-0-0-0-0|
F#|-0--0--0-0-0---x--0--0--0-0-0--x---0--0--0-0-0--x--0-0-0-0-0-0-0-0-0|
 B|-5--5--5-5-5---x--9--9--9-9-9--x---4--4--4-4-4--x--5-5-5-5-5-5-5-5-5|

("All I've ever known is lost")
D#|0--0--0-0-0--x---0--0--0-0-0----x----0---x--------x--0x0----x------x-x|
 B|0--0--0-0-0--x---0--0--0-0-0----x----0---x--------x--0x0----x------x-x|
F#|0--0--0-0-0--x---0--0--0-0-0----x----0---x--------x--0x0----x------x-x|
 B|0--0--0-0-0--x---0--0--0-0-0----x----0---x--------x--0x0----x------x-x|
F#|0--0--0-0-0--x---0--0--0-0-0----x----0---x--------x--0x0----x------x-x|
 B|9--9--9-9-9--x---4--4--4-4-4----x----5---x--------x--5x5----x------x-x|

Chorus pt1:
D#|0--0--0--0--0--0--0--0--0--0--0--0--0--0--0--0--0--0--0--0--0--0--0--0--0--0--0--0--0--0--0--0|
 B|0--0--0--0--0--0--0--0--0--0--0--0--0--0--0--0--0--0--0--0--0--0--0--0--0--0--0--0--0--0--0--0|
F#|0--0--0--0--0--0--0--0--0--0--0--0--0--0--0--0--0--0--0--0--0--0--0--0--0--0--0--0--0--0--0--0|
 B|0--0--0--0--0--0--0--0--0--0--0--0--0--0--0--0--0--0--0--0--0--0--0--0--0--0--0--0--0--0--0--0|
F#|0--0--0--0--0--0--0--0--0--0--0--0--0--0--0--0--0--0--0--0--0--0--0--0--0--0--0--0--0--0--0--0|
 B|0--0--0--0--0--0--0--0--5--5--5--5--5--5--5--5--9--9--9--9--9--9--9--9--5--5--5--5--5--5--5--5|

For first chorus, the second part ("I think I'm falling") copies Verse 1 with just a 
single strum at the end:
D#|00-x----0---x----0---0-0-0-0--00-x------0---x----0|
 B|00-x----0---x----0---0-0-0-0--00-x------0---x----0|
F#|00-x----0---x----0---0-0-0-0--00-x------0---x----0|
 B|00-x----0---x----0---0-0-0-0--00-x------0---x----0|
F#|00-x----0---x----0---0-0-0-0--00-x------0---x----0|
 B|00-x----4/12x----5---5-5-5-5--99-x------4/12x----5|

Verse 2:
D#|-----x---0----x--0--x-x-x--0-0--x-x-x--0-0--x-x-x--0-0--x-x-x--0-0--x-x-x--0--|
 B|-----x---0----x--0--x-x-x--0-0--x-x-x--0-0--x-x-x--0-0--x-x-x--0-0--x-x-x--0--|
F#|-----x---0----x--0--x-x-x--0-0--x-x-x--0-0--x-x-x--0-0--x-x-x--0-0--x-x-x--0--|
 B|-----x---0----x--0--x-x-x--0-0--x-x-x--0-0--x-x-x--0-0--x-x-x--0-0--x-x-x--0--|
F#|-----x---0----x--0--x-x-x--0-0--x-x-x--0-0--x-x-x--0-0--x-x-x--0-0--x-x-x--0--|
 B|-----x---9----x--4--x-x-x--5-5--x-x-x--7-7--x-x-x--9-9--x-x-x--4-4--x-x-x--5--|

("Baby, breathe")
D#|--xxx-x----0--x--0--x-x-x--0-0-0-0-0-0-0-0|
 B|--xxx-x----0--x--0--x-x-x--0-0-0-0-0-0-0-0|
F#|--xxx-x----0--x--0--x-x-x--0-0-0-0-0-0-0-0|
 B|--xxx-x----0--x--0--x-x-x--0-0-0-0-0-0-0-0|
F#|--xxx-x----0--x--0--x-x-x--0-0-0-0-0-0-0-0|
 B|--xxx-x----9--x--4--x-x-x--5-5-5-5-7-7-7-7|

D#|-0-0--x-x-x--0-0--x-x-x--0------5------x-x|
 B|-0-0--x-x-x--0-0--x-x-x--0------5------x-x|
F#|-0-0--x-x-x--0-0--x-x-x--0------5------x-x|
 B|-0-0--x-x-x--0-0--x-x-x--0------5------x-x|
F#|-0-0--x-x-x--0-0--x-x-x--0------5------x-x|
 B|-9-9--x-x-x--4-4--x-x-x--5------5------x-x|


Chorus pt1 repeat twice

Bridge (repeat three times):
D#|000-0-0-0-0-0-0--000-0-0-0-0-0-0-000-0-0-0-0-0-0-0-0-0-0-0-0-0-0|
 B|000-0-0-0-0-0-0--000-0-0-0-0-0-0-000-0-0-0-0-0-0-0-0-0-0-0-0-0-0|
F#|000-0-0-0-0-0-0--000-0-0-0-0-0-0-000-0-0-0-0-0-0-0-0-0-0-0-0-0-0|
 B|000-0-0-0-0-0-0--000-0-0-0-0-0-0-000-0-0-0-0-0-0-0-0-0-0-0-0-0-0|
F#|000-0-0-0-0-0-0--000-0-0-0-0-0-0-000-0-0-0-0-0-0-0-0-0-0-0-0-0-0|
 B|999-9-9-9-9-9-9--777-7-7-7-7-7-7-555-5-5-5-5-5-5-5-5-5-5-5-5-5-5|


Chorus starts off like this:
D#|0------5------x-x|
 B|0------5------x-x|
F#|0------5------x-x|
 B|0------5------x-x|
F#|0------5------x-x|
 B|0------5------x-x|            
Submit corrections

↑ Back to top | Tablatures and chords for acoustic guitar and electric guitar, ukulele, drums are parodies/interpretations of the original songs. You may use it for private study, scholarship, research or language learning purposes only