» » »

The Hush Sound - Lions Roar Tabs

Artists:  A B C D E F G H I J K L M N O P Q R S T U V W X Y Z # 

Lions Roar Tabs

(ver. 1) Click to play this song!
The Hush Sound
 Rating:
2.9/5 (9 votes)

 Lions Roar lessons Tabs too difficult? Try these video lessons and learn fast
 
                "Lion's Roar" by 'The Hush Sound' from the album 'Like Vines'.


Tuning: One Half-Step Down (ie. Eb Bb Gb Db Ab Eb )
(Note: Please ignore/remove my other tab, I forgot to mention the correct tuning in that one.)

Chords

    Em  Am  G   C   B   Gmaj7
eb|--0---0---3---0---2---3-----|
Bb|--0---1---3---1---4---0-----|   
Gb|--0---2---0---0---4---0-----|
Db|--2---2---0---2---4---0-----|
Ab|--2---0---2---3---2---2-----|
Eb|--0-------3-----------3-----| 

Verse Strumming Pattern
    Em                                 Am
eb|----------------------------------|----------------------------------|
Bb|----------------------------------|----------------------------------|
Gb|----------------------------------|----2---2---2---2---2---2---2---2-|
Db|----2---2---2---2---2---2---2---2-|----2---2---2---2---2---2---2---2-|
Ab|----2---2---2---2---2---2---2---2-|--0---0---0---0---0---0---0---0---|
Eb|--0---0---0---0---0---0---0---0---|----------------------------------|  

    Em                                 Am              C   b   a   b
eb|----------------------------------|----------------------------------|
Bb|----------------------------------|----------------------------------|
Gb|----------------------------------|----2---2---2---2-----------------|
Db|----2---2---2---2---2---2---2---2-|----2---2---2---2-----------------|
Ab|----2---2---2---2---2---2---2---2-|--0---0---0---0---3---2---0---2---|
Eb|--0---0---0---0---0---0---0---0---|----------------------------------|  



[ Trumpet Lick (goes something like this...) ]                            
    Em                                      Am
eb|---------------------------------------|---------------------------------------|
Bb|--17-16-14------17-16-14--17-16-14-16--|--17-16-14------17-16-14--17-16-14-16--|
Gb|-----------13--------------------------|-----------13--------------------------|
Db|---------------------------------------|---------------------------------------|
Ab|---------------------------------------|---------------------------------------|
Eb|---------------------------------------|---------------------------------------|   


Verse 
Em
The lions roar and young men soar
Am
The flames all scorch the circus floor
Em                                  Am    
Puppets on string all dance and sing and flap their wings
C   b    a          b   Em    [ Trumpet Lick ]    Am    
Trumpets play sick lullabies


Verse 
Em
Delicate dame her fragile face
Am
Was scared away without a trace
Em                       
Out in the cold, where did she go?
Am             C     b    a  b  
Into unknown a place I'll never


Chorus
G            Am        C      Gmaj7
Know and the desperate search began
     Am         C       Gmaj7
All across this sea and land
       Am       C        B
I just knew I'd find you here
       C    b   a    b  e
I just knew I'd find you


Verse
Em
Elephants rear and young men steer
Am
The audience just claps and cheers
Em
I asked around half empty towns
Am           C b     a  b  G
About a girl nowhere to be found


Chorus
        Am        C      Gmaj7
And the desperate search began
     Am         C       Gmaj7
All across this sea and land
       Am       C        B
I just knew I'd find you here
       C    b   a    b  Em
I just knew I'd find you


Verse
Em
We didn't know, we could not go
Am
The circus songs just carried on
Em
Out of the crowd three men rush out
Am                     C  b a b  e
And scream and shout, "Everybody Stop!"


Instrumental


|Em    |Am      |Em    |Am Am Am|   [ x 4 ]
 .      .        .


eb|--------------------------------------|-------------------------------------|
Bb|--13--------------13---13--------13---|--13-------------13---13--------13---|    
Gb|--13--------------13---13--------13---|--12-------------12---12--------12---|
Db|--13--------------13---13--------13---|--14-------------14---14--------14---|
Ab|--------------------------------------|-------------------------------------|
Eb|--------------------------------------|-------------------------------------|  [ x 2 ]


eb|----------------------------------------------|--------------------------------------------|
Bb|--13---------13---------13----------13--------|-13---------13---------13---------13--------|    
Gb|-------13---------13---------13----------13---|------12---------12---------12---------12---|
Db|---------13---------13---------13----------13-|--------14---------14---------14---------14-|
Ab|----------------------------------------------|--------------------------------------------|
Eb|----------------------------------------------|--------------------------------------------|  [ x 3 ]


eb|----------------------------------------------|--------------------------------------------|
Bb|--13---------13---------13----------13--------|-13---------13---------13-------------------|    
Gb|-------13---------13---------13----------13---|------12---------12-------------------------|
Db|---------13---------13---------13----------13-|--------14---------14-----------------------|
Ab|----------------------------------------------|--------------------------------------------|
Eb|----------------------------------------------|--------------------------------------------|  [ x 1 ]
            
Submit corrections


        Lions Roar lessons Hard to play? Try these video lessons and learn fast Lions Roar lessons
        
↑ Back to top | Tablatures and chords for acoustic guitar and electric guitar, ukulele, drums are parodies/interpretations of the original songs. You may use it for private study, scholarship, research or language learning purposes only