» » »

The Hush Sound - Eileen Tabs

Artists:  A B C D E F G H I J K L M N O P Q R S T U V W X Y Z # 

Eileen Tabs

(ver. 2) Click to play this song!
The Hush Sound
 Rating:
4/5 (4 votes)

 Eileen lessons Tabs too difficult? Try these video lessons and learn fast
 
                Alright this is a pretty tricky transposition. The only way to play the verse in the
key, across three octaves, is to capo all the way up at nine (if you find a better way, let
know). If you're learning this for performance purposes, I might recommend playing it 
a capo.

In fact, you could probably get away with just playing chords based of the root (Cadd9,
Em7, and G for the verse)

The intro is just a flurry of notes which I won't even attempt right now.

Verse: Capo IX

E|---0--0--0--3--0----|---0--0--0--3--0----|
B|------------------3-|------------------3-|
G|--0--0--0-----------|--------------------|
D|--------------------|--2--2--2-----------|
A|-3--3--3------------|-0--0--0------------|
E|--------------------|--------------------|

E|---0--0--8----7-----|---0---0--8---7---7-|
B|--------------------|--------------------|
G|--------------------|--------------------|
D|--------------------|--0--0--------------|
A|--2--2--2-----------|--------------------|
E|-0--0--0------------|-3--3---------------|

Verse: Part II: Capo IX

E|------------------|------------------|
B|----1---1---1---1-|----1---1---1---1-|
G|---0---0---0---0--|---0---0---0---0--|
D|--2---2---2---2---|--2---2---2---2---|
A|-3---3---3---3----|-0---0------------|
E|------------------|---------0---0----|

E|------------------|-3-3-0------|
B|----1---1---1---1-|--------3---|
G|---0---0---0---0--|-----0------|
D|--2---2---2---2---|-2------3---|
A|-3---3---3---3----|------------|
E|------------------|------------|

Verse

"I must stay on the shore..."                          x2
E|-------------|-------------|-------------|-------------|
B|---0---1-0-0-|-------0-----|-------------|---------1-0-|
G|-------------|---2-----2-0-|-------0---2-|---2---2-----|
D|--2----------|--2----------|---2-----2---|--2----------|
A|-3-----------|-0-----------|--2----------|-0-----------|
E|-------------|-------------|-0-----------|-------------|

Then there might be a key change when it gets all energetic, but I'll finish that later.
            
Submit corrections


        Eileen lessons Hard to play? Try these video lessons and learn fast Eileen lessons
        
↑ Back to top | Tablatures and chords for acoustic guitar and electric guitar, ukulele, drums are parodies/interpretations of the original songs. You may use it for private study, scholarship, research or language learning purposes only