» » »

The Hush Sound - A Dark Congregation Tabs

Artists:  A B C D E F G H I J K L M N O P Q R S T U V W X Y Z # 

A Dark Congregation Tabs

(ver. 2) Click to play this song!
The Hush Sound
 Rating:
4/5 (4 votes)

 A Dark Congregation lessons Tabs too difficult? Try these video lessons and learn fast
 
                12/8 Time Signature

e-----------|----------------|---------------|-------------
B-----------|----------------|---------------|-------------
G-----------|---6---6-8b10-8-|-6-------------|-----6-------
D-----4---4-|-8---8----------|---------4---4-|-6/8---8p6---
A-4-6---6---|----------------|---6-4-6---6---|-----------9-
D-----------|----------------|---------------|-------------

e-------|------------|------------------|-------------|
B-------|------------|------------------|-------------|
G-------|------------|---6---6-8b10-6-8-|-6-----------|
D-6-----|------4---4-|-8---8------------|---8-6-6-----|
A---9-6-|--4-6---6---|------------------|---------9-8-|
D-------|------------|------------------|-------------|

e------------|
B------------|
G------------|
D------------|
A------------|
D-8-6-4-6-4\-|
            
Submit corrections


        A Dark Congregation lessons Hard to play? Try these video lessons and learn fast A Dark Congregation lessons
        
↑ Back to top | Tablatures and chords for acoustic guitar and electric guitar, ukulele, drums are parodies/interpretations of the original songs. You may use it for private study, scholarship, research or language learning purposes only