Home » T » The Horrors »

The Horrors - Sheena Is A Parasite Bass

Artists:  A B C D E F G H I J K L M N O P Q R S T U V W X Y Z # 

Sheena Is A Parasite Bass

(ver. 2) Click to play this song!
The Horrors
The Horrors - Sheena Is A Parasite

Intro/Verse
G|---------------------------------------------------------|
D|---9-7-9-7-9-7-9-7-9-7-9-7-------------------------------|
A|---------------------------------------------------------|
E|---------------------------------------------------------|
Continually, until:

Chorus:
G|---------------------------------------------------------|
D|---------------------------------------------------------|
A|----2-2-2-2-2-2-/-10-10-10-10-10-------------------------|
E|---------------------------------------------------------|

G|---------------------------------------------------------|
D|---------------------------------------------------------|
A|----2-2-2-2-2-2------------------------------------------|
E|-----------------3-3-3-3-3-------------------------------|

Order:
Intro
Chorus x2
Verse
Chorus x2
Verse
Chorus x2
Verse
            
Submit corrections

↑ Back to top | Tablatures and chords for acoustic guitar and electric guitar, ukulele, drums are parodies/interpretations of the original songs. You may use it for private study, scholarship, research or language learning purposes only