Home » T » The Horrors »

The Horrors - Jack The Ripper Bass

Artists:  A B C D E F G H I J K L M N O P Q R S T U V W X Y Z # 

Jack The Ripper Bass

(ver. 1) Click to play this song!
The Horrors
G|-----------------|
D|-----------------|
A|-----------------|x12
E|0--3--0-3-0-5-3--|

G|-------------------------------------------|
D|-------------------------------------------|
A|5-7-7-7-7-5-7-7-7-7-5-7-7-7-7-5-7-5-4-3-2--|Then repeat on the E string
E|-------------------------------------------|

G|-----------------|
D|-----------------|
A|-----------------|x12
E|0--3--0-3-0-5-3--|

G|-------------------------------------------|
D|-------------------------------------------|
A|5-7-7-7-7-5-7-7-7-7-5-7-7-7-7-5-7-5-4-3-2--|
E|-------------------------------------------|

G|--------------------------------------|
D|--------------------------------------|
A|--------------------------------------|
E|5-7-7-7-7-5-7-7-7-7-5-77777755443322--|

Faster bit:
G|----------|
D|----------|
A|----------|
E|0-303053--|x12

G|--------------------|
D|--------------------|
A|0-303053--------3---|
E|----------3-5353-3--|x2

G|----------|
D|----------|
A|----------|
E|0-303053--|x12

G|--------------------|
D|--------------------|
A|0-303053--------3---|x2
E|----------3-5353-3--|

G|----------|
D|----------|
A|----------|x5
E|0-303053--|

G|-------------------------------------|
D|---------------------------------3---|
A|---------------3--0-303053-3-5353-3--|
E|0-303053-3-5353-5--------------------|

G|----------------------------------------|
D|----------------------------------------|
A|---------------3--0-303053-3~-0~--------|
E|0-303053-3-5353-5----------------3~-0~--|
            
Submit corrections

↑ Back to top | Tablatures and chords for acoustic guitar and electric guitar, ukulele, drums are parodies/interpretations of the original songs. You may use it for private study, scholarship, research or language learning purposes only