» » »

The Honorary Title - Snow Day Tabs

Artists:  A B C D E F G H I J K L M N O P Q R S T U V W X Y Z # 

Snow Day Tabs

(ver. 2) Click to play this song!
The Honorary Title
 Rating:
4.6/5 (10 votes)

 Snow Day lessons Tabs too difficult? Try these video lessons and learn fast
 
                This is my first tab so here it goes...

Intro/Verse
E|-0-0-0-0-0-0-0-0-0-0-0-0-0-0-0-0| 
A|-0-0-0-0-0-0-0-0-0-0-0-0-0-0-0-0|
B|-4-0-4-0-4-0-4-0-4-0-4-0-4-0-4-0|
D|-2-2-2-2-2-2-2-2-0-0-0-0-0-0-0-0|
A|-3-3-3-3-3-3-3-3-2-2-2-2-2-2-2-2|
D|-0-0-0-0-0-0-0-0-3-3-3-3-3-3-3-3|

Play 9* then

Chorus Thing 
E|-------------0*8-------------0-|
A|-------------0---------------0-|
B|-------------0---------------0-|
D|-2*8-4*8-5*8-2---2*8-4*8-3*8-2-|
A|-2---4---5---3---2---4---5---3-|
D|-0---2---3---0---0---2---5---0-|

Intro/Verse 9*

Chorus Thing 3*

Bridge Like Thing
E|------------------------|5*
A|------------------------|
B|--------------4-4-4-2-0-|
D|---5-0-4-5---2-2--------|
A|--2---------3-----------|
D|-3----------------------|

Then
E----------------7-5-2-3----------|2*
A---------------------------------|
B-------------4-------------------|
D---5-0-4-5--2-2--------2-2-2-2---|
A--2--------3-------------------0-|
D-3-------------------------------|

Chorus Thing 2*

Then
E|-00000000-0-0-0-0-|
A|-00000000-2-2-2-2-|
B|-00000000-0-0-0-0-|
D|-02020202-2-2-2-2-|
A|-33333333-3-3-3-3-|
D|-00000000-0-0-0-0-|

Chorus Thing 4*
  
and thats it, 
I Think
            
Submit corrections


        Snow Day lessons Hard to play? Try these video lessons and learn fast Snow Day lessons
        
↑ Back to top | Tablatures and chords for acoustic guitar and electric guitar, ukulele, drums are parodies/interpretations of the original songs. You may use it for private study, scholarship, research or language learning purposes only