Home » T » The Good The Bad And The Queen »

The Good The Bad And The Queen - Herculean Tabs

Artists:  A B C D E F G H I J K L M N O P Q R S T U V W X Y Z # 

Herculean Tabs

(ver. 2) Click to play this song!
The Good The Bad And The Queen
If you see any mistakes, please e-mail me. 
Enjoy playing :-)

INTRO:
    E   D           D    B    F    C       E    D    
e|----------------------------------------------------------------|
B|----------------------------------------------------------------|
G|--13--11----------11---7---10---9--------13---11----------------|
D|--14--12-------- -12---8---10---10---x2--14---12----------------|
A|--14--12--------- 12---8---8----10-------14---12----------------|
E|--12--10----------10---6---8----8--------12---10----------------|

VERSE:
Standing on the darkened hour by the gasworks
Celebrate the ghost gone by when the love hurts
    D           Bb          F         C
e|----------------------------------------------------------------|
B|----------------------------------------------------------------|
G|--11----------7-----------10--------9---------------------------|
D|--12----------8-----------10--------10--------------------------|
A|--12----------8-----------8---------10--------------------------|
E|--10----------6-----------8---------8---------------------------|

And the medicine man here 24/7
you can get it fast in Armageddon
Everyone on the way to heaven slowly
        F                C
e|----------------------------------------------------------------|
B|----------------------------------------------------------------|
G|------10---------------9----------------------------------------|
D|------10---------------10---------------------------------------|
A|------8----------------10---------------------------------------|
E|------8----------------8----------------------------------------|

BREAK:
    D    Bb  F    C    E    D         D    Bb   F   C    D   C
e|----------------------------------------------------------------|
B|----------------------------------------------------------------|
G|--11---7---10---9----13---11--------11---7---10---9----11---9---|
D|--12---8---10---10---14---12--------12---8---10---10---12---10--|
A|--12---8---8----10---14---12--------12---8---8----10---12---10--|
E|--10---6---8----8----12---10--------10---6---8----8----10---8---|

2ND VERSE:
Call the prayer is come around here in the morning
wash your faces go to work there is no worning
    D           Bb          F         C
e|----------------------------------------------------------------|
B|----------------------------------------------------------------|
G|--11----------7-----------10--------9---------------------------|
D|--12----------8-----------10--------10--------------------------|
A|--12----------8-----------8---------10--------------------------|
E|--10----------6-----------8---------8---------------------------|

That it all gets better when life is straight
It's bigger than you the welfare state
We'll keep singing it's not too late for you
        F                C
e|----------------------------------------------------------------|
B|----------------------------------------------------------------|
G|------10---------------9----------------------------------------|
D|------10---------------10---------------------------------------|
A|------8----------------10---------------------------------------|
E|------8----------------8----------------------------------------|

OUTRO:
    D           Bb          F         C
e|----------------------------------------------------------------|
B|----------------------------------------------------------------|
G|--11----------7-----------10--------9---------------------------|
D|--12----------8-----------10--------10--------------------------|
A|--12----------8-----------8---------10--------------------------|
E|--10----------6-----------8---------8---------------------------|
            
Submit corrections

↑ Back to top | Tablatures and chords for acoustic guitar and electric guitar, ukulele, drums are parodies/interpretations of the original songs. You may use it for private study, scholarship, research or language learning purposes only