» » »

The Getaway Plan - The New Year Tabs

Artists:  A B C D E F G H I J K L M N O P Q R S T U V W X Y Z # 

The New Year Tabs

(ver. 2) Click to play this song!
The Getaway Plan
 Rating:
4.2/5 (5 votes)

 The New Year lessons Tabs too difficult? Try these video lessons and learn fast
 
                The Getaway Plan

The New Year

Hold Conversation


I Know Some Of It Is Not Right Im Not Great At Learning By Ear, I Hope Someone Uses It 
Get The Rest Of The Song Or Something
And If you Do Know It All PLEASE PLEASE PLEASE Put It Up It Will Be MUCH Appreciated
And The Parts I Missed I Dont Know... Clint and Benny Are Just Way 2 Good For Me I Guess 
I Love The Getaway Plan!

Intro Guitar 1
|--------------------------|-----------------|
|--------------------------|-----------------|
|--13-13-13-13-13-13-13-13-|-8-8-8-8-8-8-8-8-|
|--x--x--x--x--x--x--x--x--|-x-x-x-x-x-x-x-x-|
|--11-11-11-11-11-11-11-11-|-6-6-6-6-6-6-6-6-|
|--------------------------|-----------------|

|-------------------------|-----------------------------|
|-------------------------|-----------------------------|
|-16-16-16-16-16-16-16-16-|-15-15-15-15-15-15-15-15-----|
|-x--x--x--x--x--x--x--x--|-x--x--x--x--x--x--x--x------| x2
|-14-14-14-14-14-14-14-14-|-13-13-13-13-13-13-13-13-----|
|-------------------------|-----------------------------|

|--------------|-------------|---------|
|--------------|-------------|---------|
|--13-13-13-13-|-13-13-13-13-|-8-8-8-8-|
|--x--x--x--x--|-x--x--x--x--|-x-x-x-x-|
|--11-11-11-11-|-11-11-11-11-|-6-6-6-6-|
|--------------|-------------|---------|

|-----------------------------------------------------|
|-----------------------------------------------------|
|-16-16-16-16-16-16-16-16---15-15-15-15-15-15-15-15---|
|-x-x-x-x-x-x-x-x-x-x-x-x---x--x--x--x--x--x--x--x----| x1
|-14-14-14-14-14-14-14-14---13-13-13-13-13-13-13-13---|
|-----------------------------------------------------|


|--------------------------|-----------------|
|--------------------------|-----------------|
|--13-13-13-13-13-13-13-13-|-8-8-8-8-8-8-8-8-|
|--x--x--x--x--x--x--x--x--|-x-x-x-x-x-x-x-x-|
|--11-11-11-11-11-11-11-11-|-6-6-6-6-6-6-6-6-|
|--------------------------|-----------------|

|-------------------------|-----------------------------|
|-------------------------|-----------------------------|
|-16-16-16-16-16-16-16-16-|-15-15-15-15-15-15-15-15-----|
|-x--x--x--x--x--x--x--x--|-x--x--x--x--x--x--x--x------| x1
|-14-14-14-14-14-14-14-14-|-13-13-13-13-13-13-13-13-----|
|-------------------------|-----------------------------|


|--------------------------------------------|
|--------------------------------------------|
|6-6-6-6-6-6-6-6-6-666-6/8-8-8-8-8-8-8-8-8---|
|6-6-6-6-6-6-6-6-6-444-4/6-6-6-6-6-6-6-6-6---| x4
|6-6-6-6-6-6-6-6-6-444-4/6-6-6-6-6-6-6-6-6---|
|6-6-6-6-6-6-6-6-6-444-4/6-6-6-6-6-6-6-6-6---|

Verse
Guitar 1
|----------9----------|
|-12--11--------11h12-|
|----9---9---9--------|
|---------------------|
|---------------------|
|---------------------|

|-----------------------------------------------------|
|---11h12p11h12p11h12p11h12p11h12p11h12p11h12p12p9----|
|-----------------------------------------------------|
|-----------------------------------------------------|
|-----------------------------------------------------|
|-----------------------------------------------------|

Guitar 2
|------------------------------------------------------------------|
|------------------------------------------------------------------|
|-444444444444-/666-888888888888-\666-444444444444-/666-888888888--|
|-222222222222-/444-666666666666-\444-222222222222-/444-666666666--|
|-222222222222-/444-666666666666-\444-222222222222-/444-666666666--|
|-222222222222-/444-666666666666-\444-222222222222-/444-666666666--|


Chorus
guitar 1
|----------------------------------|----------------|
|----------------------------------|----------------|
|---16-16-16-16-16-16--16-16-16-16-|-18-18-18-18----|
|---x--x--x--x--x--x---x--x--x--x--|-x--x--x--x-----|
|---14-14-14-14-14-14--14-14-14-14-|-14-14-14-14----|
|----------------------------------|----------------|

Guitar 2
|---------------------------------------------------|
|---------------------------------------------------|
|-44444444--666-8888888--666-44444444--666-88888888-|
|-222222222-444-66666666-444-222222222-444-66666666-|
|-222222222-444-66666666-444-222222222-444-66666666-|
|-222222222-444-66666666-444-222222222-444-66666666-|

Breakdown
|------------------------------------------|
|----------5-5-5-----------12-12-12--------|
|--44444---8-8-8---88888---15-15-15--------|
|--22222-----------66666-------------------|
|--22222-----------66666-------------------|
|--22222-----------66666-------------------|


  Key
  / slide up
  \ slide down
  h hammer on
  p pull off
            
Submit corrections


        The New Year lessons Hard to play? Try these video lessons and learn fast The New Year lessons
        
↑ Back to top | Tablatures and chords for acoustic guitar and electric guitar, ukulele, drums are parodies/interpretations of the original songs. You may use it for private study, scholarship, research or language learning purposes only