» » »

The Fray - Heaven Forbid Acoustic Tabs

Artists:  A B C D E F G H I J K L M N O P Q R S T U V W X Y Z # 

Heaven Forbid Acoustic Tabs

(ver. 5) Click to play this song!
The Fray
 Rating:
4.3/5 (28 votes)

 Heaven Forbid Acoustic lessons Tabs too difficult? Try these video lessons and learn fast
 
                [Intro]
Eb|-------0-----0-----0-------------------------------------------------------|
B |-------0-----0-----0-------------------------------------------------------|
Gb|-------2-----0-----4-------------------------------------------------------| X 3
B |-------0-----0-----4-------------------------------------------------------|
Ab|-------0-----0-----0-------------------------------------------------------|
Eb|-------0-----0-----0-------------------------------------------------------|

Eb|-------0-----0-------------------------------------------------------------|
B |-------0-----0-------------------------------------------------------------|
Gb|-------0-----0-------------------------------------------------------------|
B |-------2-----0-------------------------------------------------------------|
Ab|-------2-----0-------------------------------------------------------------|
Eb|-------0-----0-------------------------------------------------------------|

Eb|-------0-----0-----0-------------------------------------------------------|
B |-------0-----0-----0-------------------------------------------------------|
Gb|-------2-----0-----4-------------------------------------------------------| X 3
B |-------0-----0-----4-------------------------------------------------------|
Ab|-------0-----0-----0-------------------------------------------------------|
Eb|-------0-----0-----0-------------------------------------------------------|

Eb|-------0-----0-------------------------------------------------------------|
B |-------0-----0-------------------------------------------------------------|
Gb|-------0-----0-------------------------------------------------------------|
B |-------2-----0-------------------------------------------------------------|
Ab|-------2-----0-------------------------------------------------------------|
Eb|-------0-----0-------------------------------------------------------------|

[Verse]
Eb|-------0-----0-----0-------------------------------------------------------|
B |-------0-----0-----0-------------------------------------------------------|
Gb|-------2-----0-----4-------------------------------------------------------| X 3
B |-------0-----0-----4-------------------------------------------------------|
Ab|-------0-----0-----0-------------------------------------------------------|
Eb|-------0-----0-----0-------------------------------------------------------|

Eb|-------0-----0-------------------------------------------------------------|
B |-------0-----0-------------------------------------------------------------|
Gb|-------0-----0-------------------------------------------------------------|
B |-------2-----0-------------------------------------------------------------|
Ab|-------2-----0-------------------------------------------------------------|
Eb|-------0-----0-------------------------------------------------------------|

Eb|-------0-----0-----0-------------------------------------------------------|
B |-------0-----0-----0-------------------------------------------------------|
Gb|-------2-----0-----4-------------------------------------------------------| X 3
B |-------0-----0-----4-------------------------------------------------------|
Ab|-------0-----0-----0-------------------------------------------------------|
Eb|-------0-----0-----0-------------------------------------------------------|

Eb|-------0-----0-------------------------------------------------------------|
B |-------0-----0-------------------------------------------------------------|
Gb|-------0-----0-------------------------------------------------------------|
B |-------2-----0-------------------------------------------------------------|
Ab|-------2-----0-------------------------------------------------------------|
Eb|-------0-----0-------------------------------------------------------------|

[Chorus]
Eb|---------------------------------------------------------------------------|
B |---------------------------------------------------------------------------|
Gb|---------------------------------5-----------------------------------------| X 2
B |--------5--------2-------4-------5-----------------------------------------| 
Ab|--------5--------2-------3-------------------------------------------------|
Eb|---------------------------------------------------------------------------|

[Outro]
Eb|----------0----------------------------------------------------------------|
B |----------0-------2-------4------------------------------------------------|
Gb|----------0---------------5------------------------------------------------|
B |----------0-------2-------4------------------------------------------------|
Ab|----------0----------------------------------------------------------------|
Eb|----------0----------------------------------------------------------------|            
Submit corrections


        Heaven Forbid Acoustic lessons Hard to play? Try these video lessons and learn fast Heaven Forbid Acoustic lessons
        
↑ Back to top | Tablatures and chords for acoustic guitar and electric guitar, ukulele, drums are parodies/interpretations of the original songs. You may use it for private study, scholarship, research or language learning purposes only