Home » T » The Follow Through »

The Follow Through - So High Tabs

Artists:  A B C D E F G H I J K L M N O P Q R S T U V W X Y Z # 

So High Tabs

(ver. 3) Click to play this song!
The Follow Through
These are what i think are the chords for So High by Joe Kirkland AKA The Follow Through,
The intro ISNT perfect but its pretty close to what he actually plays.
Hope this helps some people - hope to see some awesome covers of this great song 


Tuning - Half Step Down...


Chords Used :   (chords actually being used)

   
A |-x-0-2-2-2-0-|               (G#)

A*|-x-12-14-14-14-12-|          (G#)

Asus4 |-x-12-14-14-15-12-|      (G#sus4)
 
E |-0-2-2-1-0-0-|

E* |-12-14-14-13-12-12|          (D#)
or|-x-7-9-9-9-7-|

Esus4 - |-12-14-14-14-12-12-|   (D#sus4)

F#m |-2-4-4-2-2-2-|  (Fm)

F#m* |-x-9-11-11-10-9-|  (Fm)

D |-x-5-7-7-7-5-|  (C#)

D7 |-x-5-7-6-7-5-|  (C#7M)

B |-x-2-4-4-4-2-|  (A#)

G#m |-x-11-13-13-12-11-|        (Gm)






Intro Part 1 - 

D#||---------------------|--------------------|----------------------|
A#||---------------------|--------------------|----------------------|
F#||------9--------------|--------------------|-----9----------------|
C#||----9-----11---11----|-9---9-11---11-9----|---9-----11-----11----|
G#||--7-----7---(7)---7--|---7-----(7)-----7--|-7-----7----(7)----7--|
D#||---------------------|--------------------|----------------------|

|----------------------|------------------|------------------|
|----------------------|------------------|------------------|
|----------------------|-----9------------|------------------|
|-9---9-11-----11-9----|-7-9---7-11-11-7--|-9-7-9-11-11-9-7--|
|---7------(7)------7--|------------------|------------------|
|----------------------|------------------|------------------|
     
|-----------------|-----------|
|-----------------|-----------|
|-----9-----------|----9------|
|-7-9---7-11-7-9--|--7--------|
|-----------------|-----------|
|-----------------|-----------|

Repeat this but play with a few hammer ons and pull of to play exaclty like Joe.



Intro Part 2 -


A * Asus4 A E * Esus4 E
F#m * E * D D7 D  




. = Palm Mute


 B      F#m .............................
 Lets turn the lights down low, oh
E..................................
Turn the lights down, I got a movie
A...................................... D...... B
We can watch until you fall asleep on my chest
F#m.....................
So tell me right now, oh
E........................................
So tell me right now, is there any place
A.........................  D............
You’d rather be other than here, lets forget the rest
F#m    E
And I swear I swear when I first saw you
    A
And talked to you, you’d give me purpose
    D
With every single word you’d say
A * G#m     F#m
You took my breath away



A *              Asus4        A*
I am so high I’m never coming down
E *     Esus4
Because you’re mine, and you’ve decided to stay around
F#m *    E *
And as time is taken away, you stay the same, you stay the same
D
You stay here with me
D     B
You stay here with me



F#m ......................... E ............. A .... D ....B
And our futures are splitting us apart as we speak
F#m ........................... E .....
We’ll get to that when it comes around
........ .................. A ..
None of that really matters now
........................ D
Because you’re here with me
F#m                                E
So tell me you love me, because it makes me feel alive
        A            D
For the first time
A * G#m      F#m  D
I   love you too



A *              Asus4        A*
I am so high I’m never coming down
E *     Esus4
Because you’re mine, and you’ve decided to stay around
F#m *     E *
And as time is taken away, you stay the same, you stay the same
D
You stay here with me
D     B
You stay here with me     x2




A *
Tell me how long we have up here
G#m
Away from everything we fear
E *          F#m
Cause I don’t wanna come back down tonight
A *
I swear I will fight until we’re the last to 
E *
Until it’s you left holding my hand
F#m        D
And oh our love will burn so bright


Bridge :

A * G#m E F#m


A (dontletring)             
I am so high I’m never coming down
E     
Because you’re mine, and you’ve decided to stay around
F#m           E
And as time is taken away, you stay the same, you stay the same
D
You stay here with me
D     B
You stay here with me     x2

Outro - A * G#m F#m
            
Submit corrections

↑ Back to top | Tablatures and chords for acoustic guitar and electric guitar, ukulele, drums are parodies/interpretations of the original songs. You may use it for private study, scholarship, research or language learning purposes only