» » »

The Drums - Youre The One That Makes Me Happy Chords

Artists:  A B C D E F G H I J K L M N O P Q R S T U V W X Y Z # 

Youre The One That Makes Me Happy Chords

(ver. 1) Click to play this song!
The Drums
 Rating:
4.4/5 (14 votes)

 Youre The One That Makes Me Happy lessons Tabs too difficult? Try these video lessons and learn fast
 
                [Intro]
e|---------------------------------------------------------------------------|
B|---------------------------------------------------------------------------|
G|---------------------------------------------------------------------------|
D|---------------------------------------------------------------------------|
A|----5-5-5------------------------------------------------------------------|
E|----------2-22-222-3-3-3-5-55-555------------------------------------------|

Listen and you’ll get it.

[Chorus]
e|---5-7-5-7-5-------------------|
B|-------------7-5-7-------------|
G|-------------------7-----------|
D|-------------------------------|
A|-------------------------------|
E|-------------------------------|

e|---5-7-5-7-5---5-5-------------|
B|-------------7-----------------|
G|-------------------------------|
D|-------------------------------|
A|-------------------------------|
E|-------------------------------|
            
Submit corrections


        Youre The One That Makes Me Happy lessons Hard to play? Try these video lessons and learn fast Youre The One That Makes Me Happy lessons
        
↑ Back to top | Tablatures and chords for acoustic guitar and electric guitar, ukulele, drums are parodies/interpretations of the original songs. You may use it for private study, scholarship, research or language learning purposes only