Home » T » The Dear Hunter »

The Dear Hunter - City Escape Tabs

Artists:  A B C D E F G H I J K L M N O P Q R S T U V W X Y Z # 

City Escape Tabs

(ver. 2) Click to play this song!
The Dear Hunter
(Intro)
Band: The Dear Hunter

Tunning: Standard

Update: Chorus added 

e|--------------------------------------------------------------------------------|
B|--------------------------------------------------------------------------------|
G|--------------------------------------------------------------------------------|
D|--------3------------3------5-5-5-3----------3------------3-----5-5-7-7-5-3-----|
A|--4--0-----5---4--0-----5-----------5--4--0-----5---4--0-----5--------------5---|
E|--------------------------------------------------------------------------------|

e|--------------------------------------------------------------------------------|
B|--------------------------------------------------------------------------------|
G|--------------------------------------------------------------------------------|
D|--------3------------3------5-5-5-3----------3------------3-----2-2-2-2---------|
A|--4--0-----5---4--0-----5-----------5--4--0-----5---4--0-----5------------------|
E|--------------------------------------------------------------------------------|

Fast picking

e|--12///0---------9///-------------------|
B|---------------------3------------------|
G|----------------------------------------|
D|----------------------------------------|
A|----------------------------------------|
E|----------------------------------------|

Chorus

e|-----------------------------------------------------------------------|
B|-----------------------------------------------------------------------|
G|---7-7-7-7--6-6-6-6--10-10-10-10---------------------------------------|
D|---7-7-7-7--6-6-6-6--10-10-10-10---------------------3-----------------|
A|---5-5-5-5--4-4-4-4---8--8--8--8---1--0-----------4-----5--------------|
E|-----------------------------------------3--1--0-----------------------|


e|-----------------------------------------------------------------------|
B|-----------------------------------------------------------------------|
G|---7-7-7-7--6-6-6-6--10-10-10-10---------------------------------------|
D|---7-7-7-7--6-6-6-6--10-10-10-10------------------------3--------------|
A|---5-5-5-5--4-4-4-4---8--8--8--8---0--1--0--4--0--5--0-----5\\\\\0-----|
E|-----------------------------------------------------------------------|


maybe i'm adding some extra notes but it doesn't sound way off... anyway, it's open to 
and continuity...
            
Submit corrections

↑ Back to top | Tablatures and chords for acoustic guitar and electric guitar, ukulele, drums are parodies/interpretations of the original songs. You may use it for private study, scholarship, research or language learning purposes only