» » »

The Dear Hunter - City Escape Tabs

Artists:  A B C D E F G H I J K L M N O P Q R S T U V W X Y Z # 

City Escape Tabs

(ver. 1) Click to play this song!
The Dear Hunter
 Rating:
4.2/5 (5 votes)

 City Escape lessons Tabs too difficult? Try these video lessons and learn fast
 
                I love this song. I tried to get it as close to CD as possible. 
It is kinda simple, just sounds harder because he layers piano 
over a good portion of it.

Intro:

Listen to song for precise rhythm. Basically on the Dm scale.
Gtr. 1 Play x2
e|-----------------------------------------------------------------------|
B|-----------------------------------------------------------------------|
G|-----------------------------------------------------------------------|
A|-------------------5-5-5-------------------------------5h7p5-----------|
D|-4---8-5--4---8-5--------8p7p5/4---8-5--4---8-5---5h7h8-----8p7p5/-----|
E|---5--------5--------------------5--------5----------------------------|

e|-----------------------------------------------------------------------|
B|-----------------------------------------------------------------------|
G|-----------------------------------------------------------------------|
A|-------------------5-5-5-----------------------------5h7---------------|
D|-4---8-5--4---8-5--------8p7p5/4---8-5--4---8-5-5h7h8------------------|
E|---5--------5--------------------5--------5----------------------------|


Gtr. 2 Tremelo Pick
e|-----------------------------|
B|-17///5------15///6----------|
G|-----------------------------|
A|-14///2------12///3----------|
D|-----------------------------|
E|-----------------------------|


Verse: Listen closly to get correct timing.
e|-5/--------5-5-5-5-5----3---1-----3-3-3-3-5--5/---0--0-0-------|
B|-6/--------5-5-5-5-6----5---3-----5-5-5-5-5--6/---2--2-2-------|
G|-7/--------5-5-5-5-7----5---3-----5-5-5-5-5--7/---2--2-2-------|
A|---------------------------------------------------------------| x2
D|---------------------------------------------------------------|
E|---------------------------------------------------------------|

Chorus:
   Dm                        C# something?
e|-5-5-5-5--5-5-5-5--5-5-5-------------------------------|
B|-6-6-6-6--6-6-6-6--6-6-6-------------------------------|
G|-7-7-7-7--7-7-7-7--7-7-7--6-6-6-6--9-9-9-9--9-9-9------|
A|-7-7-7-7--7-7-7-7--7-7-7--7-7-7-7--7-7-7-7--7-7-7------|
D|-5-5-5-5--5-5-5-5--5-5-5--4-4-4-4--4-4-4-4--4-4-4------|
E|-------------------------------------------------------|

   BM7
e|-1-1-1-1--1-1-1-1--1-1-1-------------------------------|
B|-3-3-3-3--3-3-3-3--3-3-3-------------------------------|
G|-2-2-2-2--2-2-2-2--2-2-2-------------------------------|
A|-3-3-3-3--3-3-3-3--3-3-3-------------------------------|
D|-1-1-1-1--1-1-1-1--1-1-1---1-0-------4-7-8-5-----------|
E|-------------------------------3-1-0-------------------|

    Dm                       C# something? (again)
e|-5-5-5-5--5-5-5-5--5-5-5-------------------------------|
B|-6-6-6-6--6-6-6-6--6-6-6-------------------------------|
G|-7-7-7-7--7-7-7-7--7-7-7--6-6-6-6--9-9-9-9--9-9-9------|
A|-7-7-7-7--7-7-7-7--7-7-7--7-7-7-7--7-7-7-7--7-7-7------|
D|-5-5-5-5--5-5-5-5--5-5-5--4-4-4-4--4-4-4-4--4-4-4------|
E|-------------------------------------------------------|

   BM7
e|-1-1-1-1--1-1-1-1--1-1-1-------------------------------|
B|-3-3-3-3--3-3-3-3--3-3-3-------------------------------|
G|-2-2-2-2--2-2-2-2--2-2-2-------------------------------|
A|-3-3-3-3--3-3-3-3--3-3-3-------------------------------|
D|-1-1-1-1--1-1-1-1--1-1-1---0-1-0-4-0-5-0-8-5///--------|
E|-------------------------------------------------------|

Hard to hear but a part after chorus has a guitar part.

e|-----5-6-5-------5-6-5-------5--|
B|---6-------6---6-------6---6----|
G|-7-----------7-----------7------|
A|--------------------------------| x4
D|--------------------------------|
E|--------------------------------|

Verse
Electronic Stuff
Chorus
Bridge 

Piano Part: This is played on piano.
e|-----5-----|    e|-----6----|    e|-----3----|    e|-----5----|
B|---6---6---|    B|---6---6--|    B|---6---6--|    B|---6---6--|
G|-7---------|    G|-7--------|    G|-7--------|    G|-7--------|
A|-----------|x8  A|----------|x4  D|----------|x2  D|----------|x2
D|-----------|    D|----------|    A|----------|    A|----------|
E|-----------|    E|----------|    E|----------|    E|----------|

Chorus

You done son.
            
Submit corrections


        City Escape lessons Hard to play? Try these video lessons and learn fast City Escape lessons
        
↑ Back to top | Tablatures and chords for acoustic guitar and electric guitar, ukulele, drums are parodies/interpretations of the original songs. You may use it for private study, scholarship, research or language learning purposes only