» » »

The Dead Weather - I Feel Love Every Million Miles Tabs

Artists:  A B C D E F G H I J K L M N O P Q R S T U V W X Y Z # 

I Feel Love Every Million Miles Tabs

(ver. 1) Click to play this song!
The Dead Weather
 Rating:
1.9/5 (30 votes)

 I Feel Love Every Million Miles  lessons Tabs too difficult? Try these video lessons and learn fast
 
                Intro:

e|---------------------------------------------------------------------------|
B|---------------------------------------------------------------------------|
G|---------------------------------------------------------------------------| x4
D|--9h7p9---7/9-7/9-7/9~-----------------------------------------------------|
A|---------------------------------------------------------------------------|
E|---------------------------------------------------------------------------|

e|---------------------------------------------------------------------------|
B|---------------------------------------------------------------------------|
G|---------------------------------------------------------------------------| x4
D|---------------------------------------------------------------------------|
A|-------9----7b--8-----------9----7b--8-------------------------------------|
E|--7-7----7-------------7-7----7--------7-----------------------------------|

Verse:

e|-------------|------------|-------------|----------------------------------|
B|---------6~--|------6-----|---------6~--|---------6h5-0--------------------|
G|----9b-------|--9b--------|----9b-------|----9b----------------------------|
D|-------------|--------9~--|-------------|----------------------------------|
A|-------------|------------|-------------|----------------------------------|
E|-------------|------------|-------------|----------------------------------|

Chorus:

e|---------------------------------------------------------------------------|
B|---------------------------------------------------------------------------|
G|---------------------------------------------------------------------------| x4
D|---------------------------------------------------------------------------|
A|-------9----7b--8-----------9----7b--8-------------------------------------|
E|--7-7----7-------------7-7----7--------7-----------------------------------|

Verse:

e|-------------|--------------------|-------------|--------------------------|
B|---------6~--|------6-6----6------|---------6~--|---7----------------------|
G|----9b-------|--9--------9--------|----9b-------|---9b---------------------|
D|-------------|----------------9---|-------------|--------------------------|
A|-------------|--------------------|-------------|--------------------------|
E|-------------|--------------------|-------------|--------------------------|

Chorus:

e|---------------------------------------------------------------------------|
B|---------------------------------------------------------------------------|
G|---------------------------------------------------------------------------|
D|---------------------------------------------------------------------------|
A|-------9----7b--8-----------9----7b--8-------------------------------------|
E|--7-7----7-------------7-7----7--------7-----------------------------------|

e|---------------------------------------------------------------------------|
B|---------------------------------------------------------------------------|
G|---------------------------------------------------------------------------|
D|---------------------------------------------------------------------------|
A|-------9----7b--8-----------9----7-8--8------------------------------------|
E|--7-7----7-------------7-7----7---------7----------------------------------|

e|---------------------------------------------------------------------------|
B|---------------------------------------------------------------------------|
G|---------------------------------------------------------------------------|
D|---------------------------------------------------------------------------|
A|-------9----7b--8-----------9----7b--8-------------------------------------|
E|--7-7----7-------------7-7----7--------7-----------------------------------|


e|---------------------------------------------------------------------------|
B|---------------------------------------------------------------------------|
G|---------------------------------------------------------------------------|
D|---------------------------------------------------------------------------|
A|-------9----7b--8-----------9----7-8--8-7-8--------------------------------|
E|--7-7----7-------------7-7----7--------------7-----------------------------|

Bridge:
Almost same as intro just slower. 

e|---------------------------------------------------------------------------|
B|---------------------------------------------------------------------------|
G|---------------------------------------------------------------------------| x4
D|--9h7p9---7/9-7/9-7/9~-----------------------------------------------------|
A|---------------------------------------------------------------------------|
E|---------------------------------------------------------------------------|

e|---------------------------------------------------------------------------|
B|---------------------------------------------------------------------------|
G|---------------------------------------------------------------------------|
D|---------------------------------------------------------------------------|
A|-------9----7b--------------9----7b--8-------------------------------------|
E|--7-7----7-------------7-7----7--------7-----------------------------------|

e|---------------------------------------------------------------------------|
B|---------------------------------------------------------------------------|
G|---------------------------------------------------------------------------|
D|---------------------------------------------------------------------------|
A|-------9----7b--------------9----7-8--8------------------------------------|
E|--7-7----7-------------7-7----7---------7----------------------------------|

e|---------------------------------------------------------------------------|
B|---------------------------------------------------------------------------|
G|---------------------------------------------------------------------------|
D|---------------------------------------------------------------------------|
A|-------9----7b--8-----------9----7b--8-------------------------------------|
E|--7-7----7-------------7-7----7--------7-----------------------------------|

e|---------------------------------------------------------------------------|
B|---------------------------------------------------------------------------|
G|---------------------------------------------------------------------------|
D|---------------------------------------------------------------------------|
A|-------9----7b--8-----------9----7-8--8------------------------------------|
E|--7-7----7-------------7-7----7---------7----------------------------------|

e|---------------------------------------------------------------------------|
B|---------------------------------------------------------------------------|
G|---------------------------------------------------------------------------|
D|---------------------------------------------------------------------------|
A|-------9----7b--8-----------9----7b--8-------------------------------------|
E|--7-7----7-------------7-7----7---------7----------------------------------|

e|---------------------------------------------------------------------------|
B|---------------------------------------------------------------------------|
G|---------------------------------------------------------------------------|
D|---------------------------------------------------------------------------|
A|-------9----7b--8-----------9----7-8--8------------------------------------|
E|--7-7----7-------------7-7----7---------7----------------------------------|

Chorus:
                                                 Do this the last time. 
e|------------------------------------------|   |----------------------------|
B|------------------------------------------|   |----------------------------|
G|------------------------------------------|x4 |----------------------------|
D|------------------------------------------|   |----------------------------|
A|-------9----7b--8-----------9----7b--8----|   |------9---7b--8-7-0---------|
E|--7-7----7-------------7-7----7--------7--|   |-7-7----7------------7~-----|            
Submit corrections


        I Feel Love Every Million Miles  lessons Hard to play? Try these video lessons and learn fast I Feel Love Every Million Miles  lessons
        
↑ Back to top | Tablatures and chords for acoustic guitar and electric guitar, ukulele, drums are parodies/interpretations of the original songs. You may use it for private study, scholarship, research or language learning purposes only