» » »

The Dead Weather - I Cut Like A Buffalo Tabs

Artists:  A B C D E F G H I J K L M N O P Q R S T U V W X Y Z # 

I Cut Like A Buffalo Tabs

(ver. 1) Click to play this song!
The Dead Weather
 Rating:
4/5 (6 votes)

 I Cut Like A Buffalo lessons Tabs too difficult? Try these video lessons and learn fast
 
                *PLEASE READ* Hey this is my first Tab Thanks for viewing if you like this tab please 
any comments or any corrections will be appreciated. I played this song by ear but i'll 
you the riffs in the order so you can work out the rest.

Riff 1 when you play the hammer part when jack sings "you know i look like a woman but i 
like a buffalo" strum D minor (Bar) up and down to the words.
E--------------5------------------------------------------------------------|
B--------------6------------------------------------------------------------|
G--------------7------------------------------------------------------------|
D--------------7------------------------------------------------------------|
A-----5h3h5----5------------------------------------------------------------|
E--------------5------------------------------------------------------------|

Ok so play this a few times then move to the power chord riff

Riff2 When you play this section its fairly straight forward
E----x---x---x---x-------------------------------------------------------|
B----x---x---x---x-------------------------------------------------------|
G----x---x---x---x-------------------------------------------------------|
D----7---6---5---3-------------------------------------------------------|
A----7---6---5---3-------------------------------------------------------|
E----5---4---3---1-------------------------------------------------------|

Then you move back to riff 1

And finaly there is Riff 3 and then thats it

E--------------------------------------------------------------------------|
B--------------------------------------------------------------------------|
G--------------------------------------------------------------------------|
D--------------------------------------------------------------------------|
A------6----3----6----3----9----8------------------------------------------|
E--------------------------------------------------------------------------|


Then Back to riff1

Thanks for viewing any questions i'll be happy to answer and i hope it was helpful!
            
Submit corrections


        I Cut Like A Buffalo lessons Hard to play? Try these video lessons and learn fast I Cut Like A Buffalo lessons
        
↑ Back to top | Tablatures and chords for acoustic guitar and electric guitar, ukulele, drums are parodies/interpretations of the original songs. You may use it for private study, scholarship, research or language learning purposes only