» » »

The Coronas - Just Like That Tabs

Artists:  A B C D E F G H I J K L M N O P Q R S T U V W X Y Z # 

Just Like That Tabs

(ver. 1) Click to play this song!
The Coronas
 Rating:
3.8/5 (26 votes)

 Just Like That  lessons Tabs too difficult? Try these video lessons and learn fast
 
                INTRO (Play this twice)
E ------------------------------------------------------------------------------------------------------------|
B ------------------------------------------------------------------------------------------------------------|
G -----7-9-7----7---9---7--7--9--7---------7--9--7------7--9--7-----/12—11\-----------------------------------| 
D --9---------9------------------------9-------------9--------------------------------------------------------| 
A ------------------------------------------------------------------------------------------------------------| 
E ------------------------------------------------------------------------------------------------------------| 

VERSE 1 (How it's played live)
E ------------------------------------------------------------------------------------------------------------|
B -----12-12-12-12-12--10----12-12-12-12-12--10\--------------------------------------------------------------|
G -----11-11-11-11-11--11----11-11-11-11-11--11\--------------------------------------------------------------|
D ---------------------------------------------------------------------------55555--4------55555--4--2--0-----|
A ------------------------------------------------------------------------------------------------------------|
E-------------------------------------------------------------------------------------------------------------| 

E-------------------------------------------0----0------------------------------------------------------------|
B -----12---------------7-----------3--------3---3--------------12----------15-------------20-----------------|
G --/11---------------------------0----0----------------------11----------14--------19------------------------|
D -------------------4---------------------------------------9----------12------17-----17---------------------|
A ------------------------------------------------------------------------------------------------------------|
E-------------------------------------------------------------------------------------------------------------| 

Pre - Chorus
E ----10-10-10-10-10-10-10-10---------------------------------------------------------------------------------|
B ----10-10-10-10-10-10-10-10-----12-12-12-12-----15-15-15-15-------------------------------------------------|
G ----7---7--7--7--7--7--7--7------9--9--9--9-----12-12-12-12-------------------------------------------------| 
D ------------------------------------------------------------------------------------------------------------| 
A ------------------------------------------------------------------------------------------------------------| 
E-------------------------------------------------------------------------------------------------------------| 
 
Chorus 1 Play twice
E ------------------------------------------------------------------7-7---------------------------------------| 
B ------------------------7--7---777------------------------3-3-3---7-7---------------------------------------| 
G -----7-9-7-------7--9---7--7---777-----------6-7-6--------4-4-4---------------------------------------------| 
D --9----------9----------------------------7---------7-------------------------------------------------------| 
A ------------------------------------------------------------------------------------------------------------| 
E-------------------------------------------------------------------------------------------------------------| 


Verse 2
E ------------------------------------------------------------------------------------------------------------|
B -----12-12-12-12-12----10----12-12-12-12-12----10-----------------------------------------------------------|
G --------------------------------------------------------11/9/11---------------------------------------------|
D --------------------------------------------------------------------------------55555--4------55555--4--2--0|
A ------------------------------------------------------------------------------------------------------------|
E-------------------------------------------------------------------------------------------------------------|

E -----------------------------------------0----0-------------------------------------------------------------|
B -----12---------------7-----------3--------3---3--------------12---------15------------20-------------------|
G --/11---------------------------0-----0----------------------11--------14--------19-------------------------|
D -------------------4---------------------------------------9----------12------17-----17---------------------|
A ------------------------------------------------------------------------------------------------------------|
E-------------------------------------------------------------------------------------------------------------|

Pre Chrous -  same as before

Chorus 2- same as chorus 1 but played 4 times instead of 2

Bridge
E ------------------------------------------------------------------------------------------------------------|
B ------------------------------------------------------------------------------------------------------------|
G ------------------------------------------------------------------------------------------------------------|
D ------------------------------------------------------------------------------------------------------------|
A ---14/22222222-55555555-44444444-9999-7777-----22222222-55555555-4444444444444444---------------------------|
E ------------------------------------------------------------------------------------------------------------|
Chorus 3 same as chorus 2

Outro
E ----------------------------------------------------------------------------------------15--15-14-15-14-----|
B --------15-17-15-------15--17--15-15----17-15--------15-17-15------15--17--15-------------------------------|
G ---16------------16-----------------------------16------------16--------------------------------------------|
D ------------------------------------------------------------------------------------------------------------|
A ------------------------------------------------------------------------------------------------------------|
E ------------------------------------------------------------------------------------------------------------| 

E -----------------------------------------------------------------------------------------15-14\-------------|
B ------15-17-15-------15--17--15-15----17-15--------15-17-15------15--17--15---------------------------------|
G -16---------------16---------------------------16-------------16--------------------------------------------|
D ------------------------------------------------------------------------------------------------------------|
A ------------------------------------------------------------------------------------------------------------|
E ------------------------------------------------------------------------------------------------------------| 
            
Submit corrections


        Just Like That  lessons Hard to play? Try these video lessons and learn fast Just Like That  lessons
        
↑ Back to top | Tablatures and chords for acoustic guitar and electric guitar, ukulele, drums are parodies/interpretations of the original songs. You may use it for private study, scholarship, research or language learning purposes only