» » »

The Coronas - Heroes Or Ghosts Tabs

Artists:  A B C D E F G H I J K L M N O P Q R S T U V W X Y Z # 

Heroes Or Ghosts Tabs

(ver. 1) Click to play this song!
The Coronas
 Rating:
4.6/5 (9 votes)

 Heroes Or Ghosts lessons Tabs too difficult? Try these video lessons and learn fast
 
                ---------------------------------------------------------------------------
                             HEROES OR GHOSTS – The Coronas
---------------------------------------------------------------------------

Tuning: DADGAe

Capo 2

Listen to the song to pick up the strum pattern, it’s fairly simple

Chords used for this song:

e|-0-|-0-|-0-|-0-|-0-|
A|-0-|-0-|-0-|-0-|-0-|
G|-2-|-7-|-6-|-2-|-1-|
D|-0-|-9-|-7-|-4-|-2-|
A|-0-|-9-|-7-|-4-|-2-|
D|-0-|-9-|-7-|-4-|-2-|

VERSE:

e|-0-----0-----0-----0-----0-----0-----|
A|-0-----0-----0-----0-----0-----0-----|
G|-2-----7-----6-----2-----1-----6-----|
D|-0-----9-----7-----4-----2-----7-----|
A|-0-----9-----7-----4-----2-----7-----|
D|-0-----9-----7-----4-----2-----7-----|

(Note--sometimes on the first chord, he throws in a hammer-on on the 2nd fret on the 
e string)

CHORUS:

e|-0-----0-----0-----0-----|
A|-0-----0-----0-----0-----|
G|-7-----1-----2-----1-----|      x2, then back to verse
D|-9-----2-----4-----2-----|
A|-9-----2-----4-----2-----|
D|-9-----2-----4-----2-----|

Song order:

Verse
Chorus
Verse
Chorus x 4 (solo is played on the 4th time)
Verse

I’m pretty sure this is the correct way to play it, but let me know if you have any 
And please be nice, it’s my first tab :P
===========================================================================
            
Submit corrections


        Heroes Or Ghosts lessons Hard to play? Try these video lessons and learn fast Heroes Or Ghosts lessons
        
↑ Back to top | Tablatures and chords for acoustic guitar and electric guitar, ukulele, drums are parodies/interpretations of the original songs. You may use it for private study, scholarship, research or language learning purposes only