Home » T » The Coronas »

The Coronas - Heroes Or Ghosts Ukulele

Artists:  A B C D E F G H I J K L M N O P Q R S T U V W X Y Z # 

Heroes Or Ghosts Ukulele

(ver. 1) Click to play this song!
The Coronas
(Intro)
the Coronas
Heroes or ghosts

Intro/verse 1

   F     C    G   Am     F     C
E--1----------3---------1-------------------------------------------|
B--1-----1----3---1-----1-----1-------------------------------------|
G--2-----0----0---2-----2-----0-------------------------------------|
D--3-----2----0---2-----3-----2--------Repeart as much as you want--|
A--3-----3----2---------3-----3-------------------------------------|
E--1----------3---------1-------------------------------------------|

Chorus

 `  F  G  Am  G
E---1--3------3-------------------------------|
B---1--3---1--3-------------------------------|
G---2--0---2--0-------------------------------|
D---3--0---2--0-------------------------------|
A---3--2------2-------------------------------|
E---1--3------3-------------------------------|
            
Submit corrections

↑ Back to top | Tablatures and chords for acoustic guitar and electric guitar, ukulele, drums are parodies/interpretations of the original songs. You may use it for private study, scholarship, research or language learning purposes only