Home » T » The Coronas »

The Coronas - Get Loose Tabs

Artists:  A B C D E F G H I J K L M N O P Q R S T U V W X Y Z # 

Get Loose Tabs

(ver. 1) Click to play this song!
The Coronas
Tuning: Standard

Listen to the song to get rhythm 

Intro

e|---------------------------------------------------------------------------|
B|--12-12-11-11-12-12-11-11-12-11--------------------------------------------|
G|--11-11-11-11-11-11-11-11-11-11--------------------------------------------|   X3  
D|---------------------------------------------------------------------------|
A|---------------------------------------------------------------------------|
E|---------------------------------------------------------------------------|

e|---------------------------------------------------------------------------|
B|--12-12-11-11-12----14-14-14-----------------------------------------------|
G|--11-11-11-11-11----11-11-11-----------------------------------------------|   X1
D|---------------------------------------------------------------------------|
A|---------------------------------------------------------------------------|
E|---------------------------------------------------------------------------|

e|---------------------------------------------------------------------------|
B|--12-12-11-11-12-12-11-11-12-11--------------------------------------------|
G|--11-11-11-11-11-11-11-11-11-11--------------------------------------------|   X3  
D|---------------------------------------------------------------------------|
A|---------------------------------------------------------------------------|
E|---------------------------------------------------------------------------| 

e|---------------------------------------------------------------------------|
B|--11h12--9---7---7-7---4---------------------------------------------------|
G|--11-----9---8---6-8---4---------------------------------------------------|   X1
D|---------------------------------------------------------------------------|
A|---------------------------------------------------------------------------|
E|---------------------------------------------------------------------------|

Verse 1

e|---------------------------------------------------------------------------|
B|-----4--7-----4--7-----4--7-----4---7-7-----4--7-----4--7-----4--7--7\-----|
G|--4-------4-4------4-4------4-4-----6-6---4------4-4------4-4-------6\-----|
D|---------------------------------------------------------------------------|
A|---------------------------------------------------------------------------|
E|---------------------------------------------------------------------------|

Chorus same as intro

Verse 2
e|---------------------------------------------------------------------------|
B|-----4--7-----4--7-----4--7-----4---7-7-----4--7-----4--7-----4--7-----4--7|
G|--4-------4-4------4-4------4-4-----6-6---4------4-4------4-4------4-4-----|
D|---------------------------------------------------------------------------|
A|---------------------------------------------------------------------------|
E|---------------------------------------------------------------------------|

Bridge 1

e|------------------11-------------------------------------------------------|
B|------12-------12----------------------------------------------------------|
G|---11------9/11------13----8---11--9/11-------------------------- ---------|
D|-9-----------------------9---9----------11\9-------------------------------|
A|---------------------------------------------------------------------------|
E|---------------------------------------------------------------------------|

e|---------------------11----------------------------------------------------|
B|--------12--------------12----------------11--12--14--16-------------------|
G|-----9-----9-----13-------------8--11---11--11--11--11---------------------|
D|--11--------------------------9--9-----------------------------------------|
A|---------------------------------------------------------------------------|
E|---------------------------------------------------------------------------|

Chorus same as previous

Bridge 2 doesnt have a guitar part

Chorus same as previous

Outro same as Verse 2            
Submit corrections

↑ Back to top | Tablatures and chords for acoustic guitar and electric guitar, ukulele, drums are parodies/interpretations of the original songs. You may use it for private study, scholarship, research or language learning purposes only