» » »

The Connels - 74 - 75 Tabs

Artists:  A B C D E F G H I J K L M N O P Q R S T U V W X Y Z # 

74 - 75 Tabs

(ver. 1) Click to play this song!
The Connels
 Rating:
4/5 (4 votes)

 74 - 75 lessons Tabs too difficult? Try these video lessons and learn fast
 
                

[Intro]
E-------------------0-0--0--0-----
H-------------------1-0-0h1-1--:--
G-------------------2-2--2--2-----
D---------------------------------
A---7-5/3---3---0-0------------:--
E-5-------5---3-------------------

[Lick 1]
E---------3--
H---------0--
G---------0--
D------------
A-5-7-5\3----
E---------3--

[Lick 2]
E-----------|------------0-3------0-0--0--0-----
H-----------|:-----------2-0------1-0-0h1-1--:--
G-----------|------------0-0------2-2--2--2-----
D-----------|-----------------------------------
A---------3-|:---7-5\3---3---0-0-------------:--
E-3-3-3h5---|--5-------5---3--------------------

[Fade out]
E-------3-------3-------0--
H-------0-------0-------1--
G-------0-------0-----2----
D-----0---0---------2------
A---2-------2-----0--------
E-3-----------3------------


[Intro]

[Verse 1]
a        C           F                    C    G       a                C      a Asus2 a
  Got no reason, for coming to me and the rain running down, there’s no reason.
a         C           F                      C   G       a          C        a Asus2 a
  And the same voice, coming to me like it's all slowing down and believe me.

[Chorus]				
          a                C
I was the one, who let you know
           G          F
I was just sorry ever after
        a             C    [Lick 1 & Lick 2]
seventy-four, seventy-five 

[Verse 2]
a          C     F                         C G     a               C    a Asus2 a
  It's not easy, nothing to say cause it's already said it's never easy.
       F            C           a         G       F
When I look on your eyes then I find that I'll do fine
       a              C              G
When I look into your eyes then I do better

[Chorus]				
          a                C
I was the one, who let you know
           G          F
I was just sorry ever after
        a             C    [ Riff1 ]
seventy-four, seventy-five
         a             C
Givin me more and I'll defy
             G           F
cause you're really only after
        a             C    [ Riff1 ]
seventy-four, seventy-five

[Fade out]	


Thanks for watching and feel free to correct me if I'm wrong!

  `W´
   #
   #
  _#_
 ( # )
 / O \
( === )
 `---´
23SNAFU
            
Submit corrections


        74 - 75 lessons Hard to play? Try these video lessons and learn fast 74 - 75 lessons
        
↑ Back to top | Tablatures and chords for acoustic guitar and electric guitar, ukulele, drums are parodies/interpretations of the original songs. You may use it for private study, scholarship, research or language learning purposes only