» » »

The Connels - 74 - 75 Tabs

Artists:  A B C D E F G H I J K L M N O P Q R S T U V W X Y Z # 

74 - 75 Tabs

(ver. 3) Click to play this song!
The Connels
 Rating:
4/5 (4 votes)

 74 - 75 lessons Tabs too difficult? Try these video lessons and learn fast
 
                The Connels - '74 -'75 

Chords:
Eb-Tuning
Am    x02210
C     x32010
G     320003
Asus2 x02200
F     133211

Riff1 (intro)
e-----------------0--3-------0-0-0-0--0-0--
B-----------------1--0-------1-1-1-0--1-1--
G-----------------0--0-------2-2-2-2--2-2--
D------2p0-------(2)-0-------2-2-2-2--2-2--
A--0-------3p0h3-(3)-2--0-0--0-0-0-0--0-0--
E--------------------3---------------------
   Am             C  G       Am    Asus2 Am

[Intro]
Am             C  G       Am    Asus2 Am   (2x)

F        C             F                     C       G        F
 Got_ no reason_   for coming to me_ and the rain__  running_ down
           C        Am    Asus2 Am
there's no reason_
F        C              F                       C     G        F
 And the sa__me voice_, coming to me_ like it's all__ slowing_ down
      C           G
and believe me_

[Chorus]
          Am               C
I was the one_ who let you know_
           G          F
I was just sorry ever after_
        Am              C        G
seventy-four__, seventy-five__

F         C      F                          C   G     F
 It's not easy_, nothing to say_ cause it's al__ready said
           C      Am    Asus2 Am
it's never easy_
        F            C            Am         G        F
When I_ look on your eyes_ then I find_ that I'll_ do fine_
       Am           C              G
When I look on your eyes then I do better_

[Chorus]
          Am               C
I was the one_ who let you know_
           G          F
I was just sorry ever after_
        Am              C        G
seventy-four__, seventy-five__
         Am               C
Givin me more_ and I'll defy_
             G             F
cause you're really_ only_ after_
        Am            C        G
seventy-four, seventy-five

[Solo]
Riff1 2x

C   G   Am   Am
C   G   Am   Am
C   G   Am   F C   G



Solo
e-------------------5--3--0-----0-/3------3-------------
B-5--3--1--5--3--1-------------------0-1----0--1-1-0----
G-4--2--0--4--2--0-----------------------------------0--
D-------------------------------------------------------
A-------------------------------------------------------
E-------------------------------------------------------
  C                 G              Am

e------------------------------------------------
B---------------1--------------------------------
G-(0)-----0h2h4----4--2--0-2---------------------
D------------------------------------------------
A------------------------------------------------
E------------------------------------------------
  C                 G              Am

e-------------------5--3--0-----0--5-3-0-5-3-0—---0h1~~p0---
B-5--3--1--5--3--1-----------------------------1------------
G-4--2--0--4--2--0------------------------------------------
D-----------------------------------------------------------
A-----------------------------------------------------------
E-----------------------------------------------------------
  C                 G              Am          F

e---------------------------------
B---------------------------------
G----------------------5--4--2----
D---------------------------------
A---------------------------------
E---------------------------------
  C                 G
F        C             F                     C       G        F
 Got_ no reason_   for coming to me_ and the rain__  running_ down
           C        Am    Asus2 Am
there's no reason_
        F            C            Am         G        F
When I_ look on your eyes_ then I find_ that I'll_ do fine_
       Am           C              G
When I look on your eyes then I do better_

[Chorus]  2x
          Am               C
I was the one_ who let you know_
           G          F
I was just sorry ever after_
        Am              C        G
seventy-four__, seventy-five__
         Am               C
Givin me more_ and I'll defy_
             G             F
cause you're really_ only_ after_
        Am            C        G
seventy-four, seventy-five

Am   C   G   F
        Am              C        G
seventy-four__, seventy-five__

Fade out..
Outro solo
e---------8------12--10--8---8--------8--------------8-----12--10--8--7--
B-8-8-h10---10~----------------10-8-----10-8----8h10---10----------------
G--------------------------------------------9---------------------------
D------------------------------------------------------------------------
A------------------------------------------------------------------------
E------------------------------------------------------------------------
            
Submit corrections


        74 - 75 lessons Hard to play? Try these video lessons and learn fast 74 - 75 lessons
        
↑ Back to top | Tablatures and chords for acoustic guitar and electric guitar, ukulele, drums are parodies/interpretations of the original songs. You may use it for private study, scholarship, research or language learning purposes only