Home » T » The Chariot »

The Chariot - Back To Back Tabs

Artists:  A B C D E F G H I J K L M N O P Q R S T U V W X Y Z # 

Back To Back Tabs

(ver. 2) Click to play this song!
The Chariot
Back to Back
The Chariot
The Fianc'ee
Drop B

C#--/----------/-|
G#--/----------/-|
E---/----------/-|
B---/-Feedback-/-|
F#--/----------/-|
B---/----------/-|

C#--17-17--17-17-17--|
G#--x--x---x--x--x---|
E---15-15--15-15-15--|
B--------------------| x8 (I Think)
F#-------------------|
B--------------------|

"We Both Know...."
C#---------------------------17-17--17-17-17--|
G#---------------------------x--x---x--x--x---|
E----------------------------15-15--15-15-15--|
B---------------------------------------------| x8
F#--0--x-x---0--x-x---0--x-x------------------|
B---0--x-x---0--x-x---0--x-x------------------|

"Tonight!"
C#-----------------------------------|
G#-----------------------------------|
E------------------------------------|
B------------------------------------|
F#--5-(5)p0--------------------------|
B-----------5p0-7p0-5p0-7p0-5p0-7p0--|

"Be Grace...."
C--------------------------------------------|
G--------------------------------------------|
E--------------------------------------------|
B--------------------------------------------|
F--0--x-x---0--x-x---0-x-x---x-x-x-x-x-x-x-x-|
B--0--x-x---0--x-x---0-x-x---x-x-x-x-x-x-x-x-|

The rest is just feedback. Thank You!
            
Submit corrections

↑ Back to top | Tablatures and chords for acoustic guitar and electric guitar, ukulele, drums are parodies/interpretations of the original songs. You may use it for private study, scholarship, research or language learning purposes only