Home » T » The Black Box Revelation »

The Black Box Revelation - Mirror Of Imagination Tabs

Artists:  A B C D E F G H I J K L M N O P Q R S T U V W X Y Z # 

Mirror Of Imagination Tabs

(ver. 2) Click to play this song!
The Black Box Revelation
The Black Box Revelation is the best band in the world.
They play Blues / Rock / Garage


This is the version I play with my teachter (there's a solo in it)

Riff:

E---------------------------------------------------------------------------|
B---------------------------------------------------------------------------|
G----7-9-7-9b-9-7-----------7---7---7-7----------------------9-9-9-9--------|
D------------------------s7---9---9-----------7-7-9-9-7-7----9-9-9-9--------|
A-7-------------------7---------------------2----------------7-7-7-7--------|
E-9-------------------5---------------------0-------------------------------|

E-------------7-7--7--------------------------------------------------------|
B-------------7-7--7--------------------------------------------------------|
G----7-9-7-9b-7-7--7--------7---7---7-9b---------------------9-9-9-9--------|
D------------------------s7---9---9-----------7-7-9-9-7-7----9-9-9-9--------|
A-7-------------------7---------------------2----------------7-7-7-7--------|
E-9-------------------5---------------------0-------------------------------|

Verse:

E----x-x--x-x-x-----x-x--x-x-x-----x-x--x-x-x-----x-x-----------------------|
B----x-x--x-x-x-----x-x--x-x-x-----x-x--x-x-x-----x-x-----------------------|
G----x-x--x-x-x-----x-x--x-x-x-----x-x--x-x-x-----x-x-----------------------|
D-9--x-x--x-x-x--7--x-x--x-x-x--2--x-x--x-x-x--2--x-x--9-9-9----------------|
A-9--x-x--x-x-x--7--x-x--x-x-x--2--x-x--x-x-x--2--x-x--9-9-9----------------|
E-7--x-x--x-x-x--5--x-x--x-x-x--0--x-x--x-x-x--0--x-x--7-7-7----------------|

Chorus:

E---------------------------------------------------------------------------|
B---------------------------------------------------------------------------|
G--------------7-7-7-7-7-7--------------------------------------------------|
D-9-9-9-9-9-9--7-7-7-7-7-7--5-5-5-5-5-5--4-4--7-7---------------------------|
A-9-9-9-9-9-9--5-5-5-5-5-5--5-5-5-5-5-5--4-4--7-7---------------------------|
E-7-7-7-7-7-7---------------3-3-3-3-3-3--2-2--5-5---------------------------|

Intersection:

E----x-x--x-x-x-----x-x--x-x-x-----x-x--x-x-x-------------------------------|
B----x-x--x-x-x-----x-x--x-x-x-----x-x--x-x-x-------------------------------|
G----x-x--x-x-x-----x-x--x-x-x-----x-x--x-x-x-----7-9-7-9b-9-7--------------|
D-9--x-x--x-x-x--9--x-x--x-x-x--9--x-x--x-x-x--9----------------------------|
A-9--x-x--x-x-x--9--x-x--x-x-x--9--x-x--x-x-x--9----------------------------|
E-7--x-x--x-x-x--7--x-x--x-x-x--7--x-x--x-x-x--7----------------------------|

Solo:(Not really in the song)

-- WAH --

E---------------------------------------------------------------------------|
B-------7-------------------------------------------------------------------|
G---7-9--------7-7h9p7------------9-7--7------------------------------------|
D-9--------7-9---------------7-9------9--9-7-9-7---7------------------------|
A------------------------7-9---------------------9---9-7--------------------|
E---------------------------------------------------------------------------|

E---------------------------------------------------------------------------|
B-------7-------------------------------------------------------------------|
G---7-9--------7-9b ~ ------------------------------------------------------|
D-9--------7-9--------------------------------------------------------------|
A---------------------------------------------------------------------------|
E---------------------------------------------------------------------------|

Bridge 1:

E------------|
B------------|
G------------|
D------------|
A---5--------|
E-7---3--2-5-|

Bridge 2:

E--------------|
B--------------|
G----7---------|
D-9--7--5--4--5|
A-9--5--5--4--5|
E-7-----3--2--7|


GUITAR 1:                             GUITAR 2:

Riff                                  Riff
Verse (x2)                            Verse (x2)
Riff                                  Riff
Chorus (x2)                           Chorus (x2)
Intersection                          /
Verse (x4)                            Solo (WAH)
                                      Bridge 1 (x2)
Bridge 2                              Bridge 1 (x2)
/                                     Bridge 1 (x2)
Chorus (x4)                           Chorus (x4)
            
Submit corrections

↑ Back to top | Tablatures and chords for acoustic guitar and electric guitar, ukulele, drums are parodies/interpretations of the original songs. You may use it for private study, scholarship, research or language learning purposes only