Home » T » The Bambi Molesters »

The Bambi Molesters - Theme From Slaying Beauty Tabs

Artists:  A B C D E F G H I J K L M N O P Q R S T U V W X Y Z # 

Theme From Slaying Beauty Tabs

(ver. 1) Click to play this song!
The Bambi Molesters


NOTE:	Tabs for guitar #2 are at the bottom of the page.
	

Guitar #1

Intro                                                           Verse       |--------------------------------------------------------------------------------------------|
|--------------------------------------------------------------------------------------------|
|--------------------------------------------------------------------------------------------|
|--------------------------------------------------------------------------------------------|
|-----------------------------------------------------------------------0-5-3---4------------|
|-2---2-0-1-2-0-1-2---2-0-1-2-0-1-2---2-0-1-2-0-1-2---2-0-1-2-0-1-2--------------------------|

|--------------------------------------------------------------------------------------------|
|--------------------------------------------------------------------------------------------|
|--------------------------------------------------------------------------------------------|
|---------4--4--4-4--------------------------------------------------------------------------|
|-------------------0--2-4---------------5-5-5-5-5-5-7-7-9-9-9-9-9-9-\5-5\4------------------|
|--------------------------------------------------------------------------------------------|
                                         + + + + + + + + + + + + + +

|--------------------------------------------------------------------------------------------|
|--------------------------------------------------------------------------------------------|
|--------------------------------------------------------------------------------------------|
|-------------------------------4--4--4-4-------------------------7-7-7-7-7-7-6-6------------|
|---------0-5-3---4-----------------------0--2-4/---------------------------------5-5-5-5-5--|
|-0-2----------------------------------------------------------------------------------------|
                                                                  + + + + + + + + + + + + +
                                                   Chorus
|--------------------------------------------------2---4---5------------------|
|--------------------------------------------------2---4---5------------------|
|--------------------------------------------------2---4---6------------------|
|--------------------------------------------------4---6---7------------------|
|-2-2-22/4-----------------------------------------4---6---7------------------|
|--------------------------------------------------2---4---5------------------|

|-----------------------------------------------------------------2---4---5------------------|
|-----------------------------------------------------------------2---4---5------------------|
|-----------------------------------------------------------------2---4---6------------------|
|-----------------------------------------------------------------4---6---7------------------|
|---4---4-4--2--0-2/4----0----------------------------------------4---6---7------------------|
|-----------------------------------------------------------------2---4---5------------------|

|-----------------------------------------------------------------2---4---5------------------|
|-----------------------------------------------------------------3---5---7------------------|
|-----------------------------------------------------------------4---6---7------------------|
|-----------------------------------------------------------------4---6---7------------------|
|---4---4-4--2--0-------------------------------------------------2---4---5------------------|
|-----------------2--------------------------------------------------------------------------|

|-----------------------------------------------------------------2---4---5------------------|
|-----------------------------------------------------------------3---5---7------------------|
|-4---4--4--2-----------------------------------------------------4---6---7------------------|
|---------------4--2---4------------------------------------------4---6---7------------------|
|-------------------------4---------------------------------------2---4---5------------------|
|--------------------------------------------------------------------------------------------|

							Verse
|--------------------------------------------------------------------------------------------|
|------------------------------------------------------------------------7*------------------|
|-4---4--4--2-----------------------------------------------------7--4---6*------------------|
|---------------4-3---3-3--3-3-3-6------------------------4-----7----------------------------|
|-------------------------------------------------------7------------------------------------|
|--------------------------------------------------------------------------------------------|

|--------------------------------------------------------------------------------------------|
|-7---7---7-7--7---7-7*--------------------------7----7----7----7----7----7*---//19--19--19\-|
|-6---6---6-6--6---5-6*------------------------7----7----7----7----7------6*---//18--18--18\-|
|--------------------------------------------------------------------------------------------|
|--------------------------------------------------------------------------------------------|
|--------------------------------------------------------------------------------------------|

|--------------------------------------------------------------------------------------------|
|------------------7*--------------------------------7---7---7-7------7*---------------------|
|-----------7--4---6*--------------------------------6---6---6-6-5--5-6*---------------------|
|---4-----7----------------------------------------------------------------------------------|
|-7------------------------------------------------------------------------------------------|
|--------------------------------------------------------------------------------------------|
								  Chorus
|-----------------------------------------------------------------2---4---5------------------|
|---7----7----7----7----7----7*-----------------------------------2---4---5------------------|
|-7----7----7----7----7------6*-----------------------------------2---4---6------------------|
|-----------------------------------------------------------------4---6---7------------------|
|-----------------------------------------------------------------4---6---7------------------|
|-----------------------------------------------------------------2---4---5------------------|

|-----------------------------------------------------------------2---4---5------------------|
|-----------------------------------------------------------------2---4---5------------------|
|-----------------------------------------------------------------2---4---6------------------|
|-----------------------------------------------------------------4---6---7------------------|
|---4---4-4--2--0-2/4----0----------------------------------------4---6---7------------------|
|-----------------------------------------------------------------2---4---5------------------|

|-----------------------------------------------------------------2---4---5------------------|
|-----------------------------------------------------------------3---5---7------------------|
|-----------------------------------------------------------------4---6---7------------------|
|-----------------------------------------------------------------4---6---7------------------|
|---4---4-4--2--0-------------------------------------------------2---4---5------------------|
|-----------------2--------------------------------------------------------------------------|

|-----------------------------------------------------------------2---4---5------------------|
|-----------------------------------------------------------------3---5---7------------------|
|-4---4--4--2-----------------------------------------------------4---6---7------------------|
|---------------4--2---4------------------------------------------4---6---7------------------|
|-------------------------4---------------------------------------2---4---5------------------|
|--------------------------------------------------------------------------------------------|

		 Bridge        
|--------------------------------------------------------------------------------------------|
|--------------------------------------------------------------------------------------------|
|-4---4—-4--2--------------------------------------------------------------------------------|
|--------------4-----------------------------------------------------------------------------|
|--------------------------------------------------------------------------------------------|
|----------------2-222-2-2-2-2-2-2-222-2---2-2-0-2*---------------------14\2-2-2-2-2-2-2-2-2-|
                                                                           + + + + + + + + +   

|--------------------------------------------------------------------------------------------|
|--------------------------------------------------------------------------------------------|
|--------------------------------------------------------------------------------------------|
|--------------------------------------------------------------------------------------------|
|--------------------------------------------------------------------------------------------|
|-2-2-2-2-2-2-2-2-2-2-2-2-2-2-2-2-2-2-2-2-202*--------------------------14\2-2-2-2-2-2-2-2-2-|
  + + + + + + + + + + + + + + + + + + + +                                  + + + + + + + + +                                 

|--------------------------------------------------------------------------------------------|
|--------------------------------------------------------------------------------------------|
|--------------------------------------------------------------------------------------------|
|------------------------------------------------------------11------------------------------|
|--------------------------------------------------------------------------------------------|
|-2-2-2-2-2-2-2-2-2-2-2-2-2-2-2-2-2-2-2-2-202*-----------------------------------------------|
  + + + + + + + + + + + + + + + + + + + +

|--------------------------------------------------------------------------------------------|
|---7----------------------------------------------------------------------------------------|
|-9----9-7-------------------------------------11----------------------11-10-----------------|
|------------7------------------------------12-----------------------------------------------|
|----------------9---------------------------------------------------------------------------|
|--------------------------------------------------------------------------------------------|

|--9----------------------------------------9--12-9------------------------------------------|
|-10-------------------------------------10---------10------------------------------------10-|
|-11---------------------------------------------------11------------------------------11----|
|-11-----------------------------------------------------------------------------------------|
|--------------------------------------------------------------------------------------------|
|--------------------------------------------------------------------------------------------|

|---------------------------9--8-----------------------------17------------------------------|
|--------------------------------------------------------------------------------------------|
|--------------------------------------------------------------------------------------------|
|--------------------------------------------------------------------------------------------|
|--------------------------------------------------------------------------------------------|
|--------------------------------------------------------------------------------------------|

|-17-17--16--14------------------------------------------------------------------------------|
|---------------17—14---------------------------14-17---------------------------------14-13--|
|---------------------14---------------------------------------------------------------------|
|--------------------------------------------------------------------------------------------|
|--------------------------------------------------------------------------------------------|
|--------------------------------------------------------------------------------------------|

|--------------------------------------------------------------------------------------------|
|---------------------------------7----------------------------------------------------------|
|-------------------------------9---9-7-------------------------------11---------------11-10-|
|-11--------------------------------------7------------------------12------------------------|
|---------------------------------------------9----------------------------------------------|
|--------------------------------------------------------------------------------------------|

Verse
|--------------------------------------------------------------------------------------------|
|--------------------------------------------------------------------------------------------|
|--------------------------------------------------------------------------------------------|
|-------------------------------4--4--4-4----------------------------------------------------|
|---------0-5-3---4-----------------------0--2-4/--------------5-5-5-5-5-5-7-7-9-9-9-9-9-9---|
|-0-2----------------------------------------------------------------------------------------|
                                                               + + + + + + + + + + + + + +

|--------------------------------------------------------------------------------------------|
|--------------------------------------------------------------------------------------------|
|--------------------------------------------------------------------------------------------|
|--------------------------------------------------------------------------------------------|
|-9/16-16-16-16-16-16-16-16-16-16-16-16-16---------------------------------------------------|
|------------------------------------------14\\\\\\\\\\\\\\----------------------------------|
     +  +  +  +  +  +  +  +  +  +  +  +  + 

|--------------------------------------------------------------------------------------------|
|--------------------------------------------------------------------------------------------|
|--------------------------------------------------------------------------------------------|
|-------------------------------4--4--4-4-------------------------7-7-7-7-7-7-6-6------------|
|---------0-5-3---4-----------------------0--2-4/---------------------------------5-5-5-5-5--|
|-0-2----------------------------------------------------------------------------------------|
                                                                  + + + + + + + + + + + + +						   				   Chorus
|--------------------------------------------------2---4---5*-----------------|
|--------------------------------------------------2---4---5*-----------------|
|--------------------------------------------------2---4---6*-----------------|
|--------------------------------------------------4---6---7*-----------------|
|-2-2-22/4*----------------------------------------4---6---7*-----------------|
|--------------------------------------------------2---4---5*-----------------|

|-----------------------------------------------------------------2---4---5*-----------------|
|-----------------------------------------------------------------2---4---5*-----------------|
|-----------------------------------------------------------------2---4---6*-----------------|
|-----------------------------------------------------------------4---6---7*-----------------|
|---4---4-4--2--0-2/4----0*---------------------------------------4---6---7*-----------------|
|-----------------------------------------------------------------2---4---5*-----------------|

|-----------------------------------------------------------------2---4---5*-----------------|
|-----------------------------------------------------------------3---5---7*-----------------|
|-----------------------------------------------------------------4---6---7*-----------------|
|-----------------------------------------------------------------4---6---7*-----------------|
|---4---4-4--2--0-------------------------------------------------2---4---5*-----------------|
|-----------------2*-------------------------------------------------------------------------|

|-----------------------------------------------------------------2---4---5*-----------------|
|-----------------------------------------------------------------3---5---7*-----------------|
|-4---4--4--2-----------------------------------------------------4---6---7*-----------------|
|---------------4--2---4------------------------------------------4---6---7*-----------------|
|-------------------------4*--------------------------------------2---4---5*-----------------|
|--------------------------------------------------------------------------------------------|

                  Outro
|-----------------------------------------------------------2*-------------------------------|
|-------------------------------------0/5--5--5---3----0----2*-------------------------------|
|-4---4--4--2-----------------------------------------------2*-------------------------------|
|---------------4-2-2-2-2-2-2-2-2-2-------------------------4*-------------------------------|
|-----------------2-2-2-2-2-2-2-2-2-------------------------4*-------------------------------|
|-----------------0-0-0-0-0-0-0-0-0-------------------------2*-------------------------------|

Guitar #2

Intro
|------------------------------------------------------------------|
|------------------------------------------------------------------|
|------------------------------------------------------------------|
|-----4-----4----------4-----4---------4-----4---------4-----4-----|x2 
|-------2h4--------------2h4---4---------2h4---4---------2h4---4---|
|-2-------------0-2--------------0-2-------------0-2-------------0-|

Through whole song guitar #2 plays just simple chords [F#m, Bm|F#m, G#m, A, Bm, C#m, D].
On the bridge part plays some riffs so here they are. [ verse |         chorus        ]

Bridge
|-5-5-5-5-5-5*------------------------------------------------17-----------17--------19---17*-|
|-7-7-7-7-7-7*-----------------------------------------------------19--17-------19--------19*-|
|-6-6-6-6-6-6*-----------19---19---19-19---19---19-19*----------------------------------------|
|------------------------18---18---18-18---18---18-18*----------------------------------------|
|---------------------------------------------------------------------------------------------|
|---------------------------------------------------------------------------------------------|
  + + + + + +

Tablature explanation:
/ or \		slide up or down
  +             double picking
  *             tremolo
  h		hammer on
            
Submit corrections

↑ Back to top | Tablatures and chords for acoustic guitar and electric guitar, ukulele, drums are parodies/interpretations of the original songs. You may use it for private study, scholarship, research or language learning purposes only