Home » T » The Bambi Molesters »

The Bambi Molesters - Malaguena Tabs

Artists:  A B C D E F G H I J K L M N O P Q R S T U V W X Y Z # 

Malaguena Tabs

(ver. 1) Click to play this song!
The Bambi Molesters
 Rating:
4/5 (4 votes)
                
The song is pretty much played with trumphet but here's the tab for guitar. Verses are little different from intro (verses are with tremolo and intro isn't), but almost the same. Chords are E, F, G, F. 

Intro/Verse
|----------0--0--1-0---------------------------------------------------------------------------|
|-0--0--0--------------1---1-1---0---0-1----------------0-1-0-3-1-0---------0------------0-----|
|-1--------------------2-----------2--------------2-1-2-------------2-------1------2-1-2-1-----|
|-2--------------------3----------------------------------------------------2------------2-----|
|-2--------------------3----------------------------------------------------2------------2-----|
|-0--------------------1----------------------------------------------------0------------0-----|

|----------0--0--1-0---------------------------------------------------------------------------|
|-0--0--0--------------1---1-1---0---0-1----------------0-1-0-3-1-0---------0------------0-----|
|-1--------------------2-----------2--------------2-1-2-------------2-------1------2-1-2-1-----|
|-2--------------------3----------------------------------------------------2------------2-----|
|-2--------------------3----------------------------------------------------2------------2-----|
|-0--------------------1----------------------------------------------------0------------0-----|

Bridge (first time for an octave higher)
|-----------------------------------------------------------------|
|-----------------------------------------------------------------|
|-----------------------------------------------------------------|
|-----------------------------------------------------------------|
|-------------2-2-------------2-2-0-0-0-3-3-3-2-2-0-0-0-----------|
|-0-0-0-4-4-4-----0-0-0-4-4-4---------------------------3-3-3-1-1-|
  + + + + + + + + + + + + + + + + + + + + + + + + + + + + + + + +

Tablature explanation:
  +		double picking
            
Submit corrections

↑ Back to top | Tablatures and chords for acoustic guitar and electric guitar, ukulele, drums are parodies/interpretations of the original songs. You may use it for private study, scholarship, research or language learning purposes only