Home » T » The Bambi Molesters »

The Bambi Molesters - Bombora Tabs

Artists:  A B C D E F G H I J K L M N O P Q R S T U V W X Y Z # 

Bombora Tabs

(ver. 1) Click to play this song!
The Bambi Molesters
 Rating:
4/5 (4 votes)
                
NOTE: Almost the whole song is with double picking. Guitar #2 plays the main riffs [A,  E] and chords [Dm, Am, E, Am], but also plays one part after the bridge too.

Guitar #1

Verses
|-------------------------------------------------------------------------------|
|-------------------------------------------------------------------------------|
|-------------------------------------------------------------------------------|
|-------------------------------------------------------------------------------|
|---0-2-3-3-3-3-3-3-3-3-3-0-2-3-5-3-2-0-2-2-------------------------------------|
|-0-----------------------------------------0-0-0-0-0-0-0-0-0-0-0-0-0-0-0-0-0-0-|
        + + + + + + + + +               +   + + + + + + + + + + + + + + + + + +

|-------------------------------------------------------------------------------|
|-------------------------------------------------------------------------------|
|-------------------------------------------------------------------------------|
|-------------------------------------------------------------------------------|
|-----0-2-2-2-2-2-2-2-2-2---0-2-3-2-0---0-0-0-0-0-0-0-0-0-0-0-0-0-0-0-0-0-0-0-0-|
|-0-4---------------------4-----------4-----------------------------------------|
        + + + + + + + + +               + + + + + + + + + + + + + + + + + + + +

|-------------------------------------------------------------------------------|
|-------------------------------------------------------------------------------|
|-------------------------------------------------------------------------------|
|-------------------------------------------------------------------------------|
|---0-2-3-3-3-3-3-3-3-3-3-0-2-3-5-3-2-0-2-2-------------------------------------|
|-0-----------------------------------------0-0-0-0-0-0-0-0-0-0-0-0-0-0-0-0-0-0-|
        + + + + + + + + +               +   + + + + + + + + + + + + + + + + + +

|-------------------------------------------------------------------------------|
|-------------------------------------------------------------------------------|
|-------------------------------------------------------------------------------|
|-------------------------------------------------------------------------------|
|-----0-2-2-2-2-2-2-2-2-2---0-2-3-2-0---0-0-0-0-0-0-0-0-0-0-0-0-0-0-0-0-0-0-----|
|-0-4---------------------4-----------4-----------------------------------------|
        + + + + + + + + +               + + + + + + + + + + + + + + + + + +    

Chorus
|-------------------------------------------------------------------------------|
|-------------------------------------------------------------------------------|
|-------------------------------------------------------------------------------|
|-0-0-2-2-3-3-3-3-5-3-5-3-2-2-2-2-3-2-3-2-0-0-0-0-2-0-2-0-------0-2---0-2-3-3-3-|
|---------------------------------------------------------3-2-3-----3-----------|
|-------------------------------------------------------------------------------|
  + + + + + + + +         + + + +         + + + +                         + + +

|--------------------------------------------------5-5-----12\5-----12\5--------|
|--------------------------------------------------5-5-----13\5-----13\5--------|
|--------------------------------------------------5-5-----14\5-----14\5--------|
|-3-5-3-5-3-2-2-2-2-3-2-3-2-0-0-0-0-2-0-----------------------------------------|
|---------------------------------------3-2-0*----------------------------------|
|---------------------------------------------------------------------------12\-|
  +         + + + +         + + + +

Bridge
|-----------------------------------------------------------------|
|-----------------------------------------------------------------|
|-----------------------------------------------------------------|
|-------------------------0---------------------------------------|
|-0-0-0-0-0-0-0-0-0-0-2-3---3-2-0---------------------0-2-3-2-0---|
|---------------------------------3-3-3-3-3-3-3-3-3-3-----------3-|
  + + + + + + + + + +             + + + + + + + + + +           

|---------------------------------------------------------------------|
|---------------------------------------------------------------------|
|---------------------------------------------------------------------|
|-----------------------------------------------------2-2-0-0---------|
|-----------------------0-2-0---------------------------------3-3-2-2-|
|-1-1-1-1-1-1-1-1-1-1-3-------3-1-0-0-0-0-0-0-0-0-0-0-----------------|
  + + + + + + + + + +             + + + + + + + + + +

|-----------------------------------------------------------------|
|-----------------------------------------------------------------|
|-----------------------------------------------------------------|
|-------------------------0---------------------------------------|
|-0-0-0-0-0-0-0-0-0-0-2-3---3-2-0---------------------0-2-3-2-0---|
|---------------------------------3-3-3-3-3-3-3-3-3-3-----------3-|
  + + + + + + + + + +             + + + + + + + + + +           

|---------------------------------------------------------------------|
|---------------------------------------------------------------------|
|---------------------------------------------------------------------|
|-----------------------------------------------------2-2-0-0---------|
|-----------------------0-2-0---------------------------------3-3-2-2-|
|-1-1-1-1-1-1-1-1-1-1-3-------3-1-0-0-0-0-0-0-0-0-0-0-----------------|
  + + + + + + + + + +             + + + + + + + + + +

|---------------------------------------------------------------------------------------|
|---------------------------------------------------------------------------------------|
|---------------------------------------------------------------------------------------|
|-2-2-2-2-2-2-2-2-2-2-5-5-5-5-5-5-5-5-5-5-3-3-3-3-3-3-3-3-3-3-2-2-2-2-2-2-2-2-2-2-2-2-2-|
|-0-0-0-0-0-0-0-0-0-0-5-5-5-5-5-5-5-5-5-5-3-3-3-3-3-3-3-3-3-3-2-2-2-2-2-2-2-2-2-2-2-2-2-|
|---------------------3-3-3-3-3-3-3-3-3-3-1-1-1-1-1-1-1-1-1-1-0-0-0-0-0-0-0-0-0-0-0-0-0-|


Guitar #2
|---0---0---0-1-0-1-0---3-------------------1-----------------0-------------------------|
|---1-------------------3---3---3-5-3-5-3---1---1---1-3---1---0-------------------------|
|---2-------------------4-------------------2-----------------1---1---------------------|
|-2-2-----------------5-5-----------------3-3-----------------2-------2---2-0-0---------|
|-0-0-----------------5-5-----------------3-3-----------------2-----------------3-3-2-2-|
|---------------------3-3-----------------1-1-----------------0-------------------------|
							2nd time------2---2-0-0-3-------|

Guitar #1

Verses
|-------------------------------------------------------------------------------|
|-------------------------------------------------------------------------------|
|-------------------------------------------------------------------------------|
|-------------------------------------------------------------------------------|
|---0-2-3-3-3-3-3-3-3-3-3-0-2-3-5-3-2-0-2-2-------------------------------------|
|-0-----------------------------------------0-0-0-0-0-0-0-0-0-0-0-0-0-0-0-0-0-0-|
        + + + + + + + + +               +   + + + + + + + + + + + + + + + + + +

|-------------------------------------------------------------------------------|
|-------------------------------------------------------------------------------|
|-------------------------------------------------------------------------------|
|-------------------------------------------------------------------------------|
|-----0-2-2-2-2-2-2-2-2-2---0-2-3-2-0---0-0-0-0-0-0-0-0-0-0-0-0-0-0-0-0-0-0-----|
|-0-4---------------------4-----------4-------------------------------------12\-|
        + + + + + + + + +               + + + + + + + + + + + + + + + + + +  + 

|-------------------------------------------------------------------------------|
|-------------------------------------------------------------------------------|
|-------------------------------------------------------------------------------|
|-------------------------------------------------------------------------------|
|---0-2-3-3-3-3-3-3-3-3-3-0-2-3-5-3-2-0-2-2-------------------------------------|
|-0-----------------------------------------0-0-0-0-0-0-0-0-0-0-0-0-0-0-0-0-0-0-|
        + + + + + + + + +               +   + + + + + + + + + + + + + + + + + +

|-------------------------------------------------------------------------------|
|-------------------------------------------------------------------------------|
|-------------------------------------------------------------------------------|
|-------------------------------------------------------------------------------|
|-----0-2-2-2-2-2-2-2-2-2---0-2-3-2-0---0-0-0-0-0-0-0-0-0-0-0-0-0-0-0-0-0-0-----|
|-0-4---------------------4-----------4-----------------------------------------|
        + + + + + + + + +               + + + + + + + + + + + + + + + + + +    

Chorus
|-------------------------------------------------------------------------------|
|-------------------------------------------------------------------------------|
|-------------------------------------------------------------------------------|
|-0-0-2-2-3-3-3-3-5-3-5-3-2-2-2-2-3-2-3-2-0-0-0-0-2-0-2-0-------0-2---0-2-3-3-3-|
|---------------------------------------------------------3-2-3-----3-----------|
|-------------------------------------------------------------------------------|
  + + + + + + + +         + + + +         + + + +                         + + +

|--------------------------------------------------5-5-----12\5-----12\5*-------|
|--------------------------------------------------5-5-----13\5-----13\5*-------|
|--------------------------------------------------5-5-----14\5-----14\5*-------|
|-3-5-3-5-3-2-2-2-2-3-2-3-2-0-0-0-0-2-0-----------------------------------------|
|---------------------------------------3-2-0*----------------------------------|
|-------------------------------------------------------------------------------|
  +         + + + +         + + + +

Tablature explanation:
/ or \		slide up or down
  +		double picking
  *		tremolo
            
Submit corrections

↑ Back to top | Tablatures and chords for acoustic guitar and electric guitar, ukulele, drums are parodies/interpretations of the original songs. You may use it for private study, scholarship, research or language learning purposes only