Home » T » The Bambi Molesters »

The Bambi Molesters - Invasion Of The Reverb Snatchers Tabs

Artists:  A B C D E F G H I J K L M N O P Q R S T U V W X Y Z # 

Invasion Of The Reverb Snatchers Tabs

(ver. 1) Click to play this song!
The Bambi Molesters
 Rating:
4/5 (4 votes)
                

Guitar #1

Intro
|-------------------------------------------------------------------------------|
|-------------------------------------------------------------------------------|
|-------------------------------------------------------------------------------|
|-----------------------------1-1---------------------------2-2-2--1-1-1--------| x4
|---------------------------------2-1-------------------------------------4-4-4-|
|-2---4-4---4---4-4-4-4-4-4-4---------0---0-0---0---0-0-0-0---------------------|
      +         +       +                 +                 

Bridge
|-4--4--4*-----------------------------|
|-4--4--4*---------9--9--9--9*---------|
|-4--4--4*---------9--9--9--9*---------|
|-6--6--6*---------9--9--9--9*---------| x2
|------------------7--7--7--7*---------|
|--------------------------------------|
(second time goes just few strings, not whole part again)

Verse
|-------------------------------------------------------2-----4-----4-4-4-4-4-4-9-11*----11--9--7--9-7-----|
|---------------------------------------------------4---------5-----5-5-5-5-5-5---12*----12----------------|
|------------------------------------------1-----1---------------------------------------------------------|
|-1----------1--------------------1----4-------------------------------------------------------------------|
|----------------4---2-4-2-----2---------------------------------------------------------------------------|
|----------------------------------------------------------------------------------------------------------|

|---------------------------------6-7---------------------------------------------------------------------------|
|-9--7--5-----------------------------8-9-----------------------------------------------------------------------|
|-9--8--6---8-----8-6---------------------8-9-------------------------------------------------------------------|
|-----------9-----------9---6-----------------9-8-----8---6--4-2-----2-4-2-----1--------------------------------|
|--------------------------------------------------------------------------4-----2---2-1------------------------|
|----------------------------------------------------------------------------------------4---4--4--4-4-2--------|

|----------------------------------------------------------4*-----|
|----------------------------------------------------------4*-----|
|--------------------------------------------9-9--8-8--7---4*-----|
|--------------1-------------------------------------------6*-----|
|----------------2---2-1------------------------------------------|
|-2--2--4-4--4-----------4---4--4--4-2----------------------------|
                                             +    +
Verse
|-------------------------------------------------------2-----4-----4-4-4-4-4-4-9-11*----11--9--7--9-7-----|
|---------------------------------------------------4---------5-----5-5-5-5-5-5---12*----12----------------|
|------------------------------------------1-----1---------------------------------------------------------|
|-1----------1--------------------1----4-------------------------------------------------------------------|
|----------------4---2-4-2-----2---------------------------------------------------------------------------|
|----------------------------------------------------------------------------------------------------------|

|---------------------------------6-7---------------------------------------------------------------------------|
|-9--7--5-----------------------------8-9-----------------------------------------------------------------------|
|-9--8--6---8-----8-6---------------------8-9-------------------------------------------------------------------|
|-----------9-----------9---6-----------------9-8-----8---6--4-2-----2-4-2-----1--------------------------------|
|--------------------------------------------------------------------------4-----2---2-1------------------------|
|----------------------------------------------------------------------------------------4---4--4--4-4-2--------|

|--------------------------------------------------------|
|--------------------------------------------------------|
|--------------------------------------------9-9--8-8--7-|
|--------------1-----------------------------------------|
|----------------2---2-1---------------------------------|
|-2--2--4-4--4-----------4---4--4--4-2-------------------|
                                             +    +
Bridge
|-4*-----------------------------------|
|-4*---------------9*------------------|
|-4*---------------9*------------------|
|-6*---------------9*------------------| x3
|------------------7*------------------|
|--------------------------------------|

Bridge (guitar #2)
|-------------------------------------------------------|
|-------------------------------------------------------|
|-------------------------------------------------------|
|-6-8-9-8---------9-8-----------------------------------|
|---------7-7---------7-7-----6-6-----------7-6---------|
|-----------------------------------4-4---------4-4-----|
(on this part guitar #1 plays some fill ins, but I don't know how, so I didn't write the tab for it, but here's the tab for guitar #2)


Guitar #1

|-------------------|
|-------------------|
|-------------------|
|-------------------| x3
|-------------------|
|-1--2-2--2---2-2-2-|
     +

Interlude
|---------------|
|---------------|
|---------------|
|-------1-------|
|---2-4---4-2-1-|
|-4-------------|

Intro
|-------------------------------------------------------------------------------|
|-------------------------------------------------------------------------------|
|-------------------------------------------------------------------------------|
|-----------------------------1-1---------------------------2-2-2--1-1-1--------| x4
|---------------------------------2-1-------------------------------------4-4-4-|
|-2---4-4---4---4-4-4-4-4-4-4---------0---0-0---0---0-0-0-0---------------------|
      +         +       +                 +                 

Outro
|-------------------|
|-------------------|
|-------------------|
|-------------------| x3
|-------------------|
|-1--2-2--2---2-2-2-|
     +

|---------------4*---|
|---------------4*---|
|---------------4*---|
|-------1-------6*---|
|---2-4---4-2-1------|
|-4------------------|
                +...

Tablature explanation:
  +		double picking
  *		tremolo
            
Submit corrections

↑ Back to top | Tablatures and chords for acoustic guitar and electric guitar, ukulele, drums are parodies/interpretations of the original songs. You may use it for private study, scholarship, research or language learning purposes only