Home » T » The Bambi Molesters »

The Bambi Molesters - Intensity Tabs

Artists:  A B C D E F G H I J K L M N O P Q R S T U V W X Y Z # 

Intensity Tabs

(ver. 1) Click to play this song!
The Bambi Molesters
 Rating:
4/5 (4 votes)
                

Intro
|-----|
|-----|
|-----|
|-----|
|-----|
|-14\-|

Verses
|---------------------------------|
|---------------------------------|
|---------------------------------|
|---------------------------------| x2
|---------------------------------|
|-2-2-2-2-2-2-2-2-4-1-1-1-1-1-1-1-|
  + + + + + + + +   + + + + + + +

|-----------------------------------------------------------------------|
|-----------------------------------------------------------------------|
|-----------------------------------------------------------------------|
|-----------------------------------------------------------------------| x2
|-----------------------------------------------------------------------|
|-2-2-2-2-2-2-4-2-9-9-9-9-9-9-2-2-10-10-10-10-10-10-2-2-9-9-9-9-9-9-4-5-|
  + + + + + +     + + + + + + + +  +  +  +  +  +  + + + + + + + + +

|---------------------------------|
|---------------------------------|
|---------------------------------|
|---------------------------------| x2
|---------------------------------|
|-2-2-2-2-2-2-2-2-4-1-1-1-1-1-1-1-|
  + + + + + + + +   + + + + + + +

|-----------------------------------------------------------------|
|-----------------------------------------------------------------|
|-----------------------------------------------------------------|
|-4-4-4-4-4-4-2-4-------------------------------------------------|
|-----------------4-4-4-4-4-4-4-4-5-5-5-5-2-2-2-2-4-4-0-0-2-0-----|
|-------------------------------------------------------------4-4-|
  + + + + + + + + + + + + + + + + + + + + + + + + + + + +     + +

|---------------------------------|
|---------------------------------|
|---------------------------------|
|---------------------------------| x2
|---------------------------------|
|-2-2-2-2-2-2-2-2-4-1-1-1-1-1-1-1-|
  + + + + + + + +   + + + + + + +

|---------------------------------------------------------------|
|---------------------------------------------------------------|
|---------------------------------------------------------2-2-1-|
|-4-4-4-4-4-4-2-4-------------------------------------3-3-------|
|-----------------4-4-4-4-4-4-4-4-5-5-5-5-2-2-2-2-4-4-----------|
|---------------------------------------------------------------|
  + + + + + + + + + + + + + + + + + + + + + + + + + + 

Bridge
|-----------------------9*---------------------|
|----------------------10*---------------------|
|----------------------11*---------------------|
|----------------------11*---------------------|
|-4*--------------------9*---------------------|
|-2*-------------------------------------------|

|----------------------------------------------|
|----------------------------------------------|
|----------------------------------------------|
|----------------------------------------------| x2 
|-------------0---2---------2/7---4------------|
|-2--------------------------------------------|
(before second time goes E|-14\-|, or intro)

|----------------------------------------------|
|-3---------------2----------------------------|
|-2-2-2---2---4--------------------------------|
|-0-----0--------------------------------------|
|----------------------------------------------|
|----------------------------------------------|

|----------------------------------------------|
|-3--------------------------------------------|
|-2-2-2---2------------------------------------|
|-0-----0--------------------------------------|
|-------------5---4----------------------------|
|----------------------------------------------|

|----------------------------------------------|
|----------------------------------------------|
|----------------------------------------------|
|----------------------------------------------|
|-------------0---2---------2/7---4------------|
|-2--------------------------------------------|

|-12-12-12------12-12---12---12------------9--9--9-------9--9----9----9-|
|-14-14-14------14-14---14---14-----------10-10-10------10-10---10---10-|
|-14-14-14------14-14---14---14-----------11-11-11------11-11---11---11-|
|-----------------------------------------------------------------------| x2
|-----------------------------------------------------------------------|
|-----------------------------------------------------------------------|
(I'm not very sure for the rhythm, so you have to listen the song)

|----------------------------------------------|
|----------------------------------------------|
|----------------------------------------------|
|----------------------------------------------|
|-------------0---2---------2/7---4------------|
|-2--------------------------------------------|

|---------------------------------------------------------------------------------|
|---------------------------------------------------------------------------------|
|---------------------------------------------------------------------------------|
|---------------------------------------------------------------------------------|
|---------------------------------------------------------------------------------|
|-2-2-2-2-2-2-2-2-3-3-3-3-3-3-3-3-4-4-4-4-4-4-4-4-5-5-5-5-5-5-5-5-6-6-6-6-6-6-6-6-|
  + + + + + + + + + + + + + + + + + + + + + + + + + + + + + + + + + + + + + + + +

|--------------|
|--------------|
|--------------|
|--------------|
|-------8-9-11-|
|-7-8-9--------|

Verses
|---------------------------------|
|---------------------------------|
|---------------------------------|
|---------------------------------| x2
|---------------------------------|
|-2-2-2-2-2-2-2-2-4-1-1-1-1-1-1-1-|
  + + + + + + + +   + + + + + + +

|-----------------------------------------------------------------------|
|-----------------------------------------------------------------------|
|-----------------------------------------------------------------------|
|-----------------------------------------------------------------------| x2
|-----------------------------------------------------------------------|
|-2-2-2-2-2-2-4-2-9-9-9-9-9-9-2-2-10-10-10-10-10-10-2-2-9-9-9-9-9-9-4-5-|
  + + + + + +     + + + + + + + +  +  +  +  +  +  + + + + + + + + +

|---------------------------------|
|---------------------------------|
|---------------------------------|
|---------------------------------| x2
|---------------------------------|
|-2-2-2-2-2-2-2-2-4-1-1-1-1-1-1-1-|
  + + + + + + + +   + + + + + + +

|-----------------------------------------------------------------|
|-----------------------------------------------------------------|
|-----------------------------------------------------------------|
|-4-4-4-4-4-4-2-4-------------------------------------------------|
|-----------------4-4-4-4-4-4-4-4-5-5-5-5-2-2-2-2-4-4-0-0-2-0-----|
|-------------------------------------------------------------4-4-|
  + + + + + + + + + + + + + + + + + + + + + + + + + + + +     + +

|---------------------------------------------------------------|
|---------------------------------------------------------------|
|---------------------------------------------------------2---1-|
|-4-4-4-4-4-4-2-4-------------------------------------3---------|
|-----------------4-4-4-4-4-4-4-4-5-5-5-5-2-2-2-2-4-4-----------|
|---------------------------------------------------------------|
  + + + + + + + + + + + + + + + + + + + + + + + + + +

Bridge
|-----------------------9*---------------------|
|----------------------10*---------------------|
|----------------------11*---------------------|
|----------------------11*---------------------|
|-4*--------------------9*---------------------|
|-2*-------------------------------------------|

|----------------------------------------------|
|----------------------------------------------|
|----------------------------------------------|
|----------------------------------------------| x2 
|-------------0---2---------2/7---4------------|
|-2--------------------------------------------|
(before second time goes E|-14\-|, or intro)

|----------------------------------------------|
|-3---------------2----------------------------|
|-2-2-2---2---4--------------------------------|
|-0-----0--------------------------------------|
|----------------------------------------------|
|----------------------------------------------|

|----------------------------------------------|
|-3--------------------------------------------|
|-2-2-2---2------------------------------------|
|-0-----0--------------------------------------|
|-------------5---4----------------------------|
|----------------------------------------------|

|----------------------------------------------|
|----------------------------------------------|
|----------------------------------------------|
|----------------------------------------------|
|-------------0---2---------2/7---4------------|
|-2--------------------------------------------|

|-12-12-12------12-12---12---12------------9--9--9-------9--9----9----9-|
|-14-14-14------14-14---14---14-----------10-10-10------10-10---10---10-|
|-14-14-14------14-14---14---14-----------11-11-11------11-11---11---11-|
|-----------------------------------------------------------------------| x2
|-----------------------------------------------------------------------|
|-----------------------------------------------------------------------|
(I'm not very sure for the rhythm, so you have to listen the song)

|----------------------------------------------|
|----------------------------------------------|
|----------------------------------------------|
|----------------------------------------------|
|-------------0---2---------2/7---4------------|
|-2--------------------------------------------|

|---------------------------------------------------------------------------------|
|---------------------------------------------------------------------------------|
|---------------------------------------------------------------------------------|
|---------------------------------------------------------------------------------|
|---------------------------------------------------------------------------------|
|-2-2-2-2-2-2-2-2-3-3-3-3-3-3-3-3-4-4-4-4-4-4-4-4-5-5-5-5-5-5-5-5-6-6-6-6-6-6-6-6-|
  + + + + + + + + + + + + + + + + + + + + + + + + + + + + + + + + + + + + + + + +

|--------------|
|--------------|
|--------------|
|--------------|
|-------8-9-11-|
|-7-8-9--------|

Verses
|---------------------------------|
|---------------------------------|
|---------------------------------|
|---------------------------------| x2
|---------------------------------|
|-2-2-2-2-2-2-2-2-4-1-1-1-1-1-1-1-|
  + + + + + + + +   + + + + + + +

|---------------------------------------------------------------------------------|
|---------------------------------------------------------------------------------|
|---------------------------------------------------------------------------------|
|---------------------------------------------------------------------------------|
|---------------------------------------------------------------------------------|
|-2-2-2-2-2-2-2-2-3-3-3-3-3-3-3-3-4-4-4-4-4-4-4-4-5-4-3-2-3-4-2-------------------|
  + + + + + + + + + + + + + + + + + + + + + + + +

Tablature explanation:
/ or \		slide up or down
  +		double picking
  *		tremolo
            
Submit corrections

↑ Back to top | Tablatures and chords for acoustic guitar and electric guitar, ukulele, drums are parodies/interpretations of the original songs. You may use it for private study, scholarship, research or language learning purposes only