Home » T » The Bambi Molesters »

The Bambi Molesters - Ice & Pinewood Trees Tabs

Artists:  A B C D E F G H I J K L M N O P Q R S T U V W X Y Z # 

Ice & Pinewood Trees Tabs

(ver. 1) Click to play this song!
The Bambi Molesters

NOTE:	Tune is drop-D


Guitar #2

Intro
E|-----0----------------------|
B|---0---0---------3----------|
G|-0-------------2-----2------|
D|-------------4---------4----|
A|-----------5----------------|
D|----------------------------|
  . . .     . . . .   . .

Guitar #1

Verses
E|--------------------------------------------------------------------|
B|--------------------------------------------------------------------|
G|--------------------------------------------------------------------|
D|--------------------------------------------------------------------|
A|--------------------------------------------------------------------|
D|-2--------------2-0--------------2--------------h5-2-0--------------|

E|--------------------------------------------------------------------|
B|--------------------------------------------------------------------|
G|--------------------------------------------------------------------|
D|--------------------------------------------------------------------|
A|-2--------------5-2-0--------------2-------------5-2-0--------------|
D|---------------------------------5----------------------------------|

E|--------------------------------------------------------------------|
B|--------------------------------------------------------------------|
G|--------------------------------------------------------------------|
D|--------------------------------------------------------------------|
A|---0----2-------0----------------0-2--------------------------------|
D|-5----------------5----2-5----------2------------0-2----------------|

E|--------------------------------------------------------------------|
B|--------------------------------------------------------------------|
G|--------------------------------------------------------------------|
D|--------------------------------------------------------------------|
A|-2-2-2---2---0-------------------2-2-2---0---2----------------------|
D|---------------5-------------------------------5--------------------|

E|--------------------------------------------------------------------|
B|--------------------------------------------------------------------|
G|--------------------------------------------------------------------|
D|---------------------------------------------------------------0-2--|
A|-----0---0---------0h2-0---------0-----0----------------------------|
D|-5-5-------------------------------5-------2------------------------|

Chorus
E|--------------------------------------------------------------------|
B|--------------------------------------------------------------------|
G|--------------------------------------------------------------------|
D|-2-2-2---0--------------------2-2-2---0-----------------------------|
A|-------------3-2--------------------------3-2-----------------------|
D|--------------------------------------------------------------------|

E|--------------------------------------------------------|
B|--------------------------------------------------------|
G|--------------------------------------------------------|
D|-2-2-2---0--------------------2-2-2---0-----------------|
A|-------------3-2--------------------------3-2---2-2---0-|
D|--------------------------------------------------------|

E|--------------------------------------------------------------------|
B|--------------------------------------------------------------------|
G|--------------------------------------------------------------------|
D|--------------------------------------------------------------------|
A|-------------------5--3------------------------5--3-----------------|
D|-0-2-----------2-2-------------0-2-------2---5----------------------|

E|---------------------------------------------|
B|---------------------------------------------|
G|---------------------------------------------|
D|---------------------------------------------|
A|-------------------5----------3-5----5-3---5-|
D|-0-2-----2-2---5-----------------------------|

E|--------------------------------------------------------------------|
B|--------------------------------------------------------------------|
G|--------------------------------------------------------------------|
D|--------------------------------------------------------------------|
A|--------------------------------------------------------------------|
D|-2--------------2-0--------------2---------------5-2-0--------------|

Verses
E|--------------------------------------------------------------------|
B|----------------3--------------------------------3------------------|
G|-2h4--------------4-2------------0-4---------------4-2--------------|
D|--------------------------------------------------------------------|
A|--------------------------------------------------------------------|
D|--------------------------------------------------------------------|

E|--------------------------------------------------------------------|
B|--------------------------------------------------------------------|
G|-0-2-----4-----2-0-----0---2-4--------------------------------------|
D|---------------------2---------------------------0-2----------------|
A|--------------------------------------------------------------------|
D|--------------------------------------------------------------------|

E|--------------------------------------------------------------------|
B|--------------------------------------------------------------------|
G|-4-4-4---4---2---0--------------4-4-4---2---4---0-------------------|
D|--------------------------------------------------------------------|
A|--------------------------------------------------------------------|
D|--------------------------------------------------------------------|

E|--------------------------------------------------------------------|
B|-------------------------------------------------3-5----------------|
G|-0-0h2-2-2-----2h4-2-----2---0---0----------------------------------|
D|-------------------------------------2------------------------------|
A|--------------------------------------------------------------------|
D|--------------------------------------------------------------------|

Chorus
E|--------------------------------------------------------------------|
B|-5-5-5---3------------------------5-5-5---3-------------------------|
G|-------------5-4------------------------------5-4-------------------|
D|--------------------------------------------------------------------|
A|--------------------------------------------------------------------|
D|--------------------------------------------------------------------|

E|--------------------------------------------------------------------|
B|-5-5-5---3------------------------5-5-5---3-------------------------|
G|-------------5-4------------------------------5-4---4-4----2--------|
D|--------------------------------------------------------------------|
A|--------------------------------------------------------------------|
D|--------------------------------------------------------------------|

E|--------------------------------------------------------------------|
B|-------------------3--1-------------------------------3--1----------|
G|--------------------------------------------------0-----------------|
D|-0-2---------2---2----------------0-2-----2---2---------------------|
A|--------------------------------------------------------------------|
D|--------------------------------------------------------------------|

E|--------------------------------------------------------------------|
B|-------------------3------------------------------------------------|
G|-----------------0----2-----------0-2----------0---2----------------|
D|-0-2-----2---2------------------------------------------------------|
A|--------------------------------------------------------------------|
D|--------------------------------------------------------------------|

Verses
E|--------------------------------------------------------------------|
B|--------------------------------------------------------------------|
G|--------------------------------------------------------------------|
D|--------------------------------------------------------------------|
A|--------------------------------------------------------------------|
D|-2--------------2-0--------------2--------------h5-2-0--------------|

E|--------------------------------------------------------------------|
B|--------------------------------------------------------------------|
G|--------------------------------------------------------------------|
D|--------------------------------------------------------------------|
A|--------------------------------------------------------------------|
D|-2----------------0--------------2--------------h5-2-0------------2-|

Tablature explanation:
  h		hammer on
  .  		palm mute
            
Submit corrections

↑ Back to top | Tablatures and chords for acoustic guitar and electric guitar, ukulele, drums are parodies/interpretations of the original songs. You may use it for private study, scholarship, research or language learning purposes only