» » »

The B-52s - 52 Girls Tabs

Artists:  A B C D E F G H I J K L M N O P Q R S T U V W X Y Z # 

52 Girls Tabs

(ver. 1) Click to play this song!
The B-52s
 Rating:
3.6/5 (5 votes)

 52 Girls lessons Tabs too difficult? Try these video lessons and learn fast
 
                52 Girls Tab by The B-52s

INTRO:
e----------|----------|----------|----------|
B----------|----------|----------|----------|
G----------|----------|----------|----------|
D----------|----------|----------|----------|
A----------|----------|----------|----------|
E----------|----------|----------|----------|

                                  X3
e--------------|-------------------||-----------------|-----------------|
B--------------|-------------------||-----------------|-----------------|
G--------------|-------------------||-----------------|-----------------|
D--------------|-------------------||-----------------|-----------------|
A-7--7--7--7-7-|-12--10-10-10-10-7-||-7-7-7-7-7-7-7-7-|-12--10-10-10-10-|
E-5--5--5--5-5-|-10--8--8--8--8--5-||-5-5-5-5-5-5-5-5-|-10--8--8--8--8--|


VERSE 1:
e--------------|--------------|----------------|----------------------|
B--------------|--------------|----------------|----------------------|
G--------------|--------------|------2---2---2-|------0---------------|
D--------------|--------------|----------------|----------------------|
A-0--3--5--3-0-|--0-3--5--3---|--0-------------|--3-------------------|
E--------------|--------------|----------------|----------3-----------|
|              |              |                |                      | X6
e--------------|--------------|----------------|----------------------|
B--------------|--------------|----------------|----------------------|
G--------------|--------------|----------------|----------------------|
D--------------|--------------|----------------|----------------------|
A-7--7--7--7-7-|-7--7-7-7-7-7-|-12--12--12--12-|-10-10-10-10-10-10-10-|
E-5--5--5--5-5-|-5--5-5-5-5-5-|-10--10--10--10-|-8--8--8--8--8--8--8--|


CHORUS:
e---------|---------|----------|---------||---------|---------------------||
B---------|---------|----------|---------||---------|---------------------||
G---------|---------|----------|---------||---------|---------------------||
D-2-------|-5-------|----------|---------||---------|---------------------||
A-0-----0-|-3-----3-|-5--------|-0-0-0-0-||-7-x7-x7-|-x12--10-10-10-10-10-||
E---------|---------|----3-----|---------||-5-x5-x5-|-x10--8--8--8--8--8--||

e---------|---------|----------|---------||---------|---------------------||
B---------|---------|----------|---------||---------|---------------------||
G---------|---------|----------|---------||---------|---------------------||
D-2-------|-5-------|----------|---------||---------|---------------------||
A-0-----0-|-3-----3-|-5--------|-0-0-0-0-||-7-x7-x7-|-x12--10-10-10-10-10-||
E---------|---------|----3-----|---------||-5-x5-x5-|-x10--8--8--8--8--8--||


VERSE 2:
e--------------|--------------|----------------|----------------------|
B--------------|--------------|----------------|----------------------|
G--------------|--------------|------2---2---2-|------0---------------|
D--------------|--------------|----------------|----------------------|
A-0--3--5--3-0-|--0-3--5--3---|--0-------------|--3-------------------|
E--------------|--------------|----------------|----------3-----------|
|              |              |                |                      | X3
e--------------|--------------|----------------|----------------------|
B--------------|--------------|----------------|----------------------|
G--------------|--------------|----------------|----------------------|
D--------------|--------------|----------------|----------------------|
A-7--7--7--7-7-|-7--7-7-7-7-7-|-12--12--12--12-|-10-10-10-10-10-10-10-|
E-5--5--5--5-5-|-5--5-5-5-5-5-|-10--10--10--10-|-8--8--8--8--8--8--8--|

e--------------|--------------|----------------|-------------------------|
B--------------|--------------|----------------|-------------------------|
G--------------|--------------|----------------|-------------------------|
D--------------|--------------|----------------|-------------------------|
A-0--0--0--0-0-|-0--0-0-0-0-0-|-3--3--3--3---3-|-5--5--5--5--5--5--5--7--|
E--------------|--------------|----------------|-------------------------|
|              |              |                |                         | X4
e--------------|--------------|----------------|-------------------------|
B--------------|--------------|----------------|-------------------------|
G--------------|--------------|----------------|-------------------------|
D--------------|--------------|----------------|-------------------------|
A-7--7--7--7-7-|-7--7-7-7-7-7-|-10-10-10-10--x-|-12-12-12-12-12-12-12-12-|
E-5--5--5--5-5-|-5--5-5-5-5-5-|-8--8--8--8---x-|-10-10-10-10-10-10-10-10-|


CHORUS:
e---------|---------|----------|---------||---------|---------------------||
B---------|---------|----------|---------||---------|---------------------||
G---------|---------|----------|---------||---------|---------------------||
D-2-------|-5-------|----------|---------||---------|---------------------||
A-0-----0-|-3-----3-|-5--------|-0-0-0-0-||-7-x7-x7-|-x12--10-10-10-10-10-||
E---------|---------|----3-----|---------||-5-x5-x5-|-x10--8--8--8--8--8--||

e---------|---------|----------|---------||---------|---------------------||
B---------|---------|----------|---------||---------|---------------------||
G---------|---------|----------|---------||---------|---------------------||
D-2-------|-5-------|----------|---------||---------|---------------------||
A-0-----0-|-3-----3-|-5--------|-0-0-0-0-||-7-x7-x7-|-x12--10-10-10-10-10-||
E---------|---------|----3-----|---------||-5-x5-x5-|-x10--8--8--8--8--8--||


VERSE 3:
e--------------|--------------|----------------|----------------------|
B--------------|--------------|----------------|----------------------|
G--------------|--------------|------2---2---2-|------0---------------|
D--------------|--------------|----------------|----------------------|
A-0--3--5--3-0-|--0-3--5--3---|--0-------------|--3-------------------|
E--------------|--------------|----------------|----------3-----------|
|              |              |                |                      | X4
e--------------|--------------|----------------|----------------------|
B--------------|--------------|----------------|----------------------|
G--------------|--------------|----------------|----------------------|
D--------------|--------------|----------------|----------------------|
A-7--7--7--7-7-|-7--7-7-7-7-7-|-12--12--12--12-|-10-10-10-10-10-10-10-|
E-5--5--5--5-5-|-5--5-5-5-5-5-|-10--10--10--10-|-8--8--8--8--8--8--8--|


e--------------|--------------|----------------|----------------------|
B--------------|--------------|----------------|----------------------|
G--------------|--------------|------2---2---2-|------0---------------|
D--------------|--------------|----------------|----------------------|
A-0--3--5--3-0-|-0---------3--|--0-------------|--3-------------------|
E--------------|--------------|----------------|----------3-----------|
|              |              |                |                      | X2
e--------------|--------------|----------------|----------------------|
B--------------|--------------|----------------|----------------------|
G--------------|--------------|----------------|----------------------|
D--------------|--------------|----------------|----------------------|
A-7--7--7--7-7-|-7---------7--|-12--12--12--12-|-10-10-10-10-10-10-10-|
E-5--5--5--5-5-|-5---------5--|-10--10--10--10-|-8--8--8--8--8--8--8--|


e--------------|--------------|----------------|----------------------|
B--------------|--------------|----------------|----------------------|
G--------------|--------------|------2---2---2-|------0---------------|
D--------------|--------------|----------------|----------------------|
A-0--3--5--3-0-|--0-3--5--3---|--0-------------|--3-------------------|
E--------------|--------------|----------------|----------3-----------|
|              |              |                |                      | X2
e--------------|--------------|----------------|----------------------|
B--------------|--------------|----------------|----------------------|
G--------------|--------------|----------------|----------------------|
D--------------|--------------|----------------|----------------------|
A-7--7--7--7-7-|-7--7-7-7-7-7-|-12--12--12--12-|-10-10-10-10-10-10-10-|
E-5--5--5--5-5-|-5--5-5-5-5-5-|-10--10--10--10-|-8--8--8--8--8--8--8--|


e--------------|--------------|----------------|-------------------------|
B--------------|--------------|----------------|-------------------------|
G--------------|--------------|----------------|-------------------------|
D--------------|--------------|----------------|-------------------------|
A-0--0--0--0-0-|-0--0-0-0-0-0-|-3--3--3--3---3-|-5--5--5--5--5--5--5--7--|
E--------------|--------------|----------------|-------------------------|
|              |              |                |                         | X4
e--------------|--------------|----------------|-------------------------|
B--------------|--------------|----------------|-------------------------|
G--------------|--------------|----------------|-------------------------|
D--------------|--------------|----------------|-------------------------|
A-7--7--7--7-7-|-7--7-7-7-7-7-|-10-10-10-10--x-|-12-12-12-12-12-12-12-12-|
E-5--5--5--5-5-|-5--5-5-5-5-5-|-8--8--8--8---x-|-10-10-10-10-10-10-10-10-|


CHORUS:
e---------|---------|----------|---------||---------|---------------------||
B---------|---------|----------|---------||---------|---------------------||
G---------|---------|----------|---------||---------|---------------------||
D-2-------|-5-------|----------|---------||---------|---------------------||
A-0-----0-|-3-----3-|-5--------|-0-0-0-0-||-7-x7-x7-|-x12--10-10-10-10-10-||
E---------|---------|----3-----|---------||-5-x5-x5-|-x10--8--8--8--8--8--||

e---------|---------|----------|---------||---------|---------------------||
B---------|---------|----------|---------||---------|---------------------||
G---------|---------|----------|---------||---------|---------------------||
D-2-------|-5-------|----------|---------||---------|---------------------||
A-0-----0-|-3-----3-|-5--------|-0-0-0-0-||-7-x7-x7-|-x12--10-10-10-10-10-||
E---------|---------|----3-----|---------||-5-x5-x5-|-x10--8--8--8--8--8--||

e---------|---------|----------|---------|
B---------|---------|----------|---------|
G---------|---------|----------|---------|
D-2-------|-5-------|----------|---------|
A-0-----0-|-3-----3-|-5--------|-0-0-0-0-|
E---------|---------|----3-----|---------|

e--------------|--------------|--------------|--------------|
B--------------|--------------|--------------|--------------|
G--------------|--------------|--------------|--------------|
D--------------|--------------|--------------|--------------|
A-0--3--5--3-0-|--0-3--5--3---|-0--3--5--3-0-|--0-3--5--3---|
E--------------|--------------|--------------|--------------|


e--------------|--------------|--------------|--------------|
B--------------|--------------|--------------|--------------|
G--------------|--------------|--------------|--------------|
D--------------|--------------|--------------|--------------|
A-0--3--5--3-0-|--0-3--5--3---|-0--3--5--3-0-|--0-3--5--3---|
E--------------|--------------|--------------|--------------|
|              |              |              |              |
e--------------|--------------|--------------|--------------|
B--------------|--------------|--------------|--------------|
G--------------|--------------|--------------|--------------|
D--------------|--------------|--------------|--------------|
A-10-----------|-10-----------|-10-----------|-10--------10\|
E-8------------|-8------------|-8------------|-8---------8-\|


e--------------|--------------|--------------|--------------|
B--------------|--------------|--------------|--------------|
G--------------|--------------|--------------|--------------|
D--------------|--------------|--------------|--------------|
A-0--3--5--3-0-|--0-3--5--3---|-0--3--5--3-0-|--0-3--5--3---|
E--------------|--------------|--------------|--------------|
|              |              |              |              |
e--------------|--------------|--------------|--------------|
B--------------|--------------|--------------|--------------|
G--------------|--------------|--------------|--------------|
D--------------|--------------|--------------|--------------|
A-5-x-x-x-x-7--|-5--5-5-5--7--|-5-x-x-x-x-7--|-5--5-5-5--7--|
E-3-x-x-x-x-5--|-3--3-3-3--5--|-3-x-x-x-x-5--|-3--3-3-3--5--|


e--------------|--------------|--------------|
B--------------|--------------|--------------|
G--------------|--------------|--------------|
D--------------|--------------|--------------|
A-0--3--5--3-0-|--0-3--5--3---|-0------------|
E--------------|--------------|--------------|
|              |              |              |
e--------------|--------------|--------------|
B--------------|--------------|--------------|
G--------------|--------------|--------------|
D--------------|--------------|--------------|
A-5-x-x-x-x-7--|-5-x-x-x-x-7--|-5------------|
E-3-x-x-x-x-5--|-3-x-x-x-x-5--|-3------------|
            
Submit corrections


        52 Girls lessons Hard to play? Try these video lessons and learn fast 52 Girls lessons
        
↑ Back to top | Tablatures and chords for acoustic guitar and electric guitar, ukulele, drums are parodies/interpretations of the original songs. You may use it for private study, scholarship, research or language learning purposes only